Song name
# A B C D E F G H I J K L M N O P Q R S T U V W X Y Z

Backyard Babies - Ex Files tab

Verse----------------------------------------------------|
---------------------------------------------------------|
---------------------------------------------------------|
---------------------------------------------------------|
---------------------------------------------------------|
--4-4-4-7-9-11-11-11-11-11-11-11-11--4-4-4-7-9-4---------|
--2-2-2-5-7--9--9--9--9--9--9--9--9--2-2-2-5-7-2---------|


Refrain--------------------------------------------------|
---------------------------------------------------------|
---------------------------------------------------------|
---------------------------------------------------------|
---------------------------------------------------------|
--4-4-7-7-2-2-9-7-6-4-4-7-7-2-2-9-7-6-4----4-------------|
--2-2-5-5-0-0-7-5-4-2-2-5-5-0-0-7-5-4-2----2-------------|
Tap to rate this tab
 
# A B C D E F G H I J K L M N O P Q R S T U V W X Y Z