Song name
# A B C D E F G H I J K L M N O P Q R S T U V W X Y Z

Bad Acid Trip - Cigarette Pack tab

-------------------------------------------------------------------------------
			     Cigarette Pack - Bad Acid Trip
-------------------------------------------------------------------------------
Tabbed by:Andrew
Email:Watch_me_die_under_flames@hotmail.com

Tuning:Dropped D --D A D G B e--

e|---------------------------------------------------------------------------|
B|---------------------------------------------------------------------------|
G|---------------------------------3-----------------------------------------|
D|---------------------------------1-----------------------------------------|
A|--------------x7-------1-11--44-------x8-----------------------------------|
D|-1-11--4-44------------1-11--44--------------------------------------------|
   X XX  X XX            x xx  xx

e|---------------------------------------------------------------------------|
B|---------------------------------------------------------------------------|
G|---------------------------------------------------------------------------|
D|--8-8-8-11-8-8-------------------------------------------------------------|
A|---------------8-8-7-8-7-6-6---x5------------------------------------------|
D|---------------------------------------------------------------------------|


e|---------------------------------------------------------------------------|
B|---------------------------------------------------------------------------|
G|------------3--------------------------------------------------------------|
D|------------1--------------------------------------------------------------|
A|-1-11--44--------x4--------------------------------------------------------|
D|-1-11--44------------------------------------------------------------------|
   x xx  xx

e|---------------------------------------------------------------------------|
B|---------------------------------------------------------------------------|
G|---------------------------------------------------------------------------|
D|--8-8-8-11-8-8-------------------------------------------------------------|
A|---------------8-8-7-8-7-6-6---x8------------------------------------------|
D|---------------------------------------------------------------------------|


e|---------------------------------------------------------------------------|
B|---------------------------------------------------------------------------|
G|------------3--------------------------------------------------------------|
D|------------1--------------------------------------------------------------|
A|-1-11--44--------x4--------------------------------------------------------|
D|-1-11--44------------------------------------------------------------------|
   x xx  xx


Not the whole song, ill get the rest done as soon as i can,  Thanks.


| /  slide up
| \  slide down
| h  hammer-on
| p  pull-off
| ~  vibrato
| +  harmonic
| x  Mute note
===============================================================================
Tap to rate this tab
# A B C D E F G H I J K L M N O P Q R S T U V W X Y Z