Song name
# A B C D E F G H I J K L M N O P Q R S T U V W X Y Z

Bad Acid Trip - Join The Circus tab

Hey guys....
This is another tabbing on Bad Acid Trip

I hope you guys enjoy

"Join The Circus"

Drop D
===============================================================================
                        Starts with bass drum
==========================--------------=======================================

(I really dont know if its a violin or not but if it isnt heres what it sounds like)

(intro)
E|----18--17--16--15-----18--17--16--15----|
B|-17--16--15--14----------17--16--15--14--|
G|-----------------------------------------|
D|-----------------------------------------|
A|-----------------------------------------|
D|-----------------------------------------|

E|----------------------------------------------|
B|----------------------------------------------|
G|----------------------------------------------|
D|----------------------------------------------|
A|-3-3/4--3-3/4--3-3/4--3-3/4-------------------|
D|-3-3/4--3-3/4--3-3/4--3-3/4-------------------|


(intro)
(verse 1)


and thats all i know for now
Tap to rate this tab
 
# A B C D E F G H I J K L M N O P Q R S T U V W X Y Z