Song name
# A B C D E F G H I J K L M N O P Q R S T U V W X Y Z

Bad Acid Trip - Plate Of Shrimp tab

Help us improve GuitareTab! Take a short survey!
-------------------------------------------------------------------------------
			     Plate Of Shrimp - Bad Acid Trip
-------------------------------------------------------------------------------
Tabbed by:Andrew
Email:Watch_me_die_under_flames@hotmail.com

Tuning:Dropped D --D A D G B e--

e|---------------------------------------------------------------------------|
B|---------------------------------------------------------------------------|
G|---------------------------------------------------------------------------|
D|-0-0-6-0-4-0-3-0-0-6-4-3---x4-----0-0-6-0-4-0-3-0-0-6-4-3-------0~---------|
A|----------------------------------0-0-6-0-4-0-3-0-0-6-4-3---x5--0~---------|
D|----------------------------------0-0-6-0-4-0-3-0-0-6-4-3-------0~---------|

e|---------------------------------------------------------------------------|
B|---------------------------------------------------------------------------|
G|-4444333344446666------------11111111-10101010-8-8-8-8-7-7-7-7-------------|
D|-xxxxxxxxxxxxxxxx---x4--------x-x-x-x-x-x-x-x--x-x-x-x-x-x-x-x---x4--------|
A|-2222111122224444-------------9-9-9-9-8-8-8-8--6-6-6-6-5-5-5-5-------------|
D|---------------------------------------------------------------------------|

e|---------------------------------------------------------------------------|
B|---------------------------------------------------------------------------|
G|-4444333344446666------------11111111-10101010-8-8-8-8-7-7-7-7-----------7-|
D|-xxxxxxxxxxxxxxxx---x4--------x-x-x-x-x-x-x-x--x-x-x-x-x-x-x-x---x4------7-|
A|-2222111122224444-------------9-9-9-9-8-8-8-8--6-6-6-6-5-5-5-5-----------5-|
D|---------------------------------------------------------------------------|

e|---------------------------------------------------------------------------|
B|---------------------------------------------------------------------------|
G|---------------------------------------------------------------------------|
D|-0-0-6-0-4-0-3-0-0-6-4-3---x4-----0-0-6-0-4-0-3-0-0-6-4-3------------------|
A|----------------------------------0-0-6-0-4-0-3-0-0-6-4-3---x5-------------|
D|----------------------------------0-0-6-0-4-0-3-0-0-6-4-3------------------|
Related for Plate Of Shrimp tab