Song name
# A B C D E F G H I J K L M N O P Q R S T U V W X Y Z

Bad Acid Trip - Furious Fists Of Jackie Chan tab

-------------------------------------------------------------------------------
			     Furious Fists Of Jackie Chan - Bad Acid Trip
-------------------------------------------------------------------------------
Tabbed by:Andrew
Email:Watch_me_die_under_flames@hotmail.com

Tuning:Dropped D --D A D G B e--

e|---------------------------------------------------------------------------|
B|---------------------------------------------------------------------------|
G|----------------------------------0-88-77-66-55-66-33-44---x4--------------|
D|-0-88-77-66-55-44-33-22---x4-----------------------------------------------|
A|---------------------------------------------------------------------------|
D|---------------------------------------------------------------------------|


e|---------------------------------------------------------------------------|
B|---------------------------------------------------------------------------|
G|---------------------------------------------------------------------------|
D|-12-10-9-0-9-10-12-0-----------0--8--7--8--0--8--9--8----------------------|
A|-12-10-9-0-9-10-12-0---x4------0--8--7--8--0--8--9--8---x2-----------------|
D|-12-10-9-0-9-10-12-0-----------0--8--7--8--0--8--9--8----------------------|
   xxxxxxxxxxxxxxxxxxx           x  x  x  x  x  x  x  x

e|---------------------------------------------------------------------------|
B|---------------------------------------------------------------------------|
G|---------------------------------------------------------------------------|
D|------------------------------------0-8-7-8-0-8-9-8------------------------|
A|-00-88-77-88-00-88-99-88---x2-------0-8-7-8-0-8-9-8---x2-------------------|
D|-00-88-77-88-00-88-99-88------------0-8-7-8-0-8-9-8------------------------|
                                      x x x x x x x x

e|---------------------------------------------------------------------------|
B|---------------------------------------------------------------------------|
G|---------------------------------------------------------------------------|
D|---------------------------------------------------------------------------|
A|-00-88-77-88-00-88-99-88---x2----------------------------------------------|
D|-00-88-77-88-00-88-99-88---------------------------------------------------|
   

e|---------------------------------------------------------------------------|
B|---------------------------------------------------------------------------|
G|----------------------------------0-88-77-66-55-66-33-44---x4--------------|
D|-0-88-77-66-55-44-33-22---x4-----------------------------------------------|
A|---------------------------------------------------------------------------|
D|---------------------------------------------------------------------------|


e|---------------------------------------------------------------------------|
B|---------------------------------------------------------------------------|
G|---------------------------------------------------------------------------|
D|-12-10-9-0-9-10-12-0-----------0--8--7--8--0--8--9--8----------------------|
A|-12-10-9-0-9-10-12-0---x4------0--8--7--8--0--8--9--8---x2-----------------|
D|-12-10-9-0-9-10-12-0-----------0--8--7--8--0--8--9--8----------------------|
   xxxxxxxxxxxxxxxxxxx           x  x  x  x  x  x  x  x

e|---------------------------------------------------------------------------|
B|---------------------------------------------------------------------------|
G|---------------------------------------------------------------------------|
D|------------------------------------0-8-7-8-0-8-9-8------------------------|
A|-00-88-77-88-00-88-99-88---x2-------0-8-7-8-0-8-9-8---x2-------------------|
D|-00-88-77-88-00-88-99-88------------0-8-7-8-0-8-9-8------------------------|
                                      x x x x x x x x

e|---------------------------------------------------------------------------|
B|---------------------------------------------------------------------------|
G|---------------------------------------------------------------------------|
D|---------------------------------------------------------------------------|
A|-00-88-77-88-00-88-99-88---x2----------------------------------------------|
D|-00-88-77-88-00-88-99-88---------------------------------------------------|



| /  slide up
| \  slide down
| h  hammer-on
| p  pull-off
| ~  vibrato
| +  harmonic
| x  Mute note
===============================================================================
Tap to rate this tab
# A B C D E F G H I J K L M N O P Q R S T U V W X Y Z