Song name
# A B C D E F G H I J K L M N O P Q R S T U V W X Y Z

Bad Books - Pytor tab

Tune down from Standard almost a quarter-step, check out the Nervous Energies live video 
and compare for the exact tones!

E ---------------------------------------------|
B ---------------------------------------------|
G ---------------------------------------------|
D --------0--------0--------0-------------0----|
A ------7---7----5---5----3-----------0h2------|
E ----8--------7--------5------3----3----------|


E -----------------------------------------------------|
B -----------------------------------------------------|
G -----------------------------------------------------|
D --------0--------0----(0)--(0)--(0)--(0)---------0---|
A ------7---7----5---5---3----5----3----2------0h2-----|
E ----8--------7---------5----7----5----3----3---------|

And then repeated throughout the song, the second half only being played at certain 
moments. Again, check out the video for exactly when to play that part! Hope you all enjoy :D

Lyrics:

Bare breasted, you make love in the turret.
I feel each single thrust that you take.
And, in silence, I watch on from the bastion.
Entranced, I make myself look away.

Bare breasted, making love in the turret.
And I've never loved nobody other than you.
In silence, I can feel as you quiver.
Let's keep quiet for you know what he can do.

*Hmm-mm*

I know I am not the man you desire.
And I know you think that I am some kind of fool.
I'll tell you in the heat of my scuffle,
"I'll figure out how I can get back to you."

And he found us in the western wing sleeping.
You crowded all the things you thought he would do.
And I'll tell you in the heat of the scuffle,
"Nobody ever takes my eyes off of you."

*Hmm-mm*

And, oh Catherine, how you run me my fever.
Oh Catherine, tell me, was it worth it for him?
'Cause these gallows are no place for the stubborn,
just you and your lover as a dark souvenir.

*Hmm-mm*

She comes to see me inside the museum;
comes every morning and again when she can.
Strokes her blistered hand across my glass container,
saying, "It's so good to see you back here, again."

*Hmm-mm*
Tap to rate this tab
# A B C D E F G H I J K L M N O P Q R S T U V W X Y Z