Song name
# A B C D E F G H I J K L M N O P Q R S T U V W X Y Z

Bad Books - No Sides tab

tuning - half step down

(0:00)Intro
eb|-----------------------------|
bb|-----------------------------|
gb|7-7-7-7-7-7-7-7--------------|
db|7-7-7-7-7-7-7-7--------------|
ab|5-5-5-5-5-5-5-5-5-5-6-7------|
eb|------------------------7-5-3|
(0:05)Verse 1
eb|---------------------------------------------------------|
bb|---------------------------------------------------------|
gb|---------------5-----------------------------------------|
db|-5------7------5(x14)-4/5-5-5-5-5-5-5-4/5-5-5-5-5-5-5-5--|
ab|-5(x14)-7(x14)-3------4/5-5-5-5-5-5-5-4/5-5-5-5-5-5-5-5--|
eb|-3------5-------------2/3-3-3-3-3-3-3-2/3-3-3-3-3-3-3-3--|

eb|---------------------------------------------------------------------|
bb|---------------------------------------------------------------------|
gb|-7-7-7-7-7-7-7-6-5-5-5-5-5-6-7-7-7-7-7-------------------------------|
db|-7-7-7-7-7-7-7-6-5-5-5-5-5-6-7-7-7-7-7-------------------------------|
ab|-5-5-5-5-5-5-5-4-3-3-3-3-3-4-5-5-5-5-5-4/5-5-5-5-5-5-5--5-5-6-7------|
eb|---------------------------------------2/3-3-3-3-3-3-3----------7-5-3|

(0:30)Verse 2
eb|---------------------------------------------------------|
bb|---------------------------------------------------------|
gb|---------------5-----------------------------------------|
db|-5------7------5(x14)-4/5-5-5-5-5-5-5-4/5-5-5-5-5-5-5-5--|
ab|-5(x14)-7(x14)-3------4/5-5-5-5-5-5-5-4/5-5-5-5-5-5-5-5--|
eb|-3------5-------------2/3-3-3-3-3-3-3-2/3-3-3-3-3-3-3-3--|

eb|---------------------------------------------------------------------|
bb|---------------------------------------------------------------------|
gb|-7-7-7-7-7-7-7-6-5-5-5-5-5-6-7-7-7-7-7-------------------------------|
db|-7-7-7-7-7-7-7-6-5-5-5-5-5-6-7-7-7-7-7------------------x-x-x-x-x-x-x|
ab|-5-5-5-5-5-5-5-4-3-3-3-3-3-4-5-5-5-5-5-4/5-5-5-5-5-5-5--x-x-x-x-x-x-x|
eb|---------------------------------------2/3-3-3-3-3-3-3--x-x-x-x-x-x-x|

(0:55) Chorus
eb|------------------------------------------------------------------------|
bb|--------3---------------------------------------------------------------|
gb|--------4------5------4------9-9-9-9-7-7-7-7----------------------------|
db|-5------4(x14)-5(x14)-4(x14)-9-9-9-9-7-7-7-7-5-5-5-5-5-5-5--------------|
ab|-5(x14)-2------3------2------7-7-7-7-5-5-5-5-5-5-5-5-5-5-5-5-5-6-7------|
eb|-3-------------------------------------------3-3-3-3-3-3-3---------7-5-3|

(1:17)Verse 3 (same as verse2)
eb|---------------------------------------------------------|
bb|---------------------------------------------------------|
gb|---------------5-----------------------------------------|
db|-5------7------5(x14)-4/5-5-5-5-5-5-5-4/5-5-5-5-5-5-5-5--|
ab|-5(x14)-7(x14)-3------4/5-5-5-5-5-5-5-4/5-5-5-5-5-5-5-5--|
eb|-3------5-------------2/3-3-3-3-3-3-3-2/3-3-3-3-3-3-3-3--|

eb|---------------------------------------------------------------------|
bb|---------------------------------------------------------------------|
gb|-7-7-7-7-7-7-7-6-5-5-5-5-5-6-7-7-7-7-7-------------------------------|
db|-7-7-7-7-7-7-7-6-5-5-5-5-5-6-7-7-7-7-7------------------x-x-x-x-x-x-x|
ab|-5-5-5-5-5-5-5-4-3-3-3-3-3-4-5-5-5-5-5-4/5-5-5-5-5-5-5--x-x-x-x-x-x-x|
eb|---------------------------------------2/3-3-3-3-3-3-3--x-x-x-x-x-x-x|

(1:43) Chorus 2 (same as chorus 1)
eb|------------------------------------------------------------------------|
bb|--------3---------------------------------------------------------------|
gb|--------4------5------4------9-9-9-9-7-7-7-7----------------------------|
db|-5------4(x14)-5(x14)-4(x14)-9-9-9-9-7-7-7-7-5-5-5-5-5-5-5--------------|
ab|-5(x14)-2------3------2------7-7-7-7-5-5-5-5-5-5-5-5-5-5-5-5-5-6-7------|
eb|-3-------------------------------------------3-3-3-3-3-3-3---------7-5-3|

(2:04) Bridge
eb|-------------------------------------|
bb|-------------------------------------|
gb|-2-----------7-----2-----------7-----|
db|-2(x14)5-----7(x7)-2(x14)5-----7(x7)-|
ab|-0-----5(x7)-5-----0-----5(x7)-5-----|
eb|-------3-----------------3-----------|

eb|----------------------------------------|
bb|----------------------------------------|
gb|-5----------5----------5----------7-----|
db|-5(x7)5-----5(x7)5-----5(x7)5-----7(x14)|
ab|-3----5(x7)-3----5(x7)-3----5(x7)-5-----|
eb|------3----------3----------3-----------|

(2:39) Chorus 3
eb|-----------------------------------------------------------|
bb|--------3--------------------------------------------------|
gb|--------4------5------4------9-9-9-9-7-7-7-7---------------|
db|-5------4(x14)-5(x14)-4(x14)-9-9-9-9-7-7-7-7-5-5-5-5-5-5-5-|
ab|-5(x14)-2------3------2------7-7-7-7-5-5-5-5-5-5-5-5-5-5-5-|
eb|-3-------------------------------------------3-3-3-3-3-3-3-|

eb|---------------------------------|
bb|-----------------3-3-3-3---------|
gb|-9-9-9-9-7-7-7-7-4-4-4-4-5-5-5-5-|
db|-9-9-9-9-7-7-7-7-4-4-4-4-5-5-5-5-|(x2)
ab|-7-7-7-7-5-5-5-5-2-2-2-2-3-3-3-3-|
eb|---------------------------------|

eb|-------------------------------------------3-|
bb|-------------------------------------------3-|
gb|-9-9-9-9-7-7-7-7-3-------------------------4-|
db|-9-9-9-9-7-7-7-7-5-5-5-5-5-5-5-------------5-|
ab|-7-7-7-7-5-5-5-5-5-5-5-5-5-5-5-5-5-6-7-----5-|
eb|-----------------3-3-3-3-3-3-3---------7-5-3-|end
Tap to rate this tab
# A B C D E F G H I J K L M N O P Q R S T U V W X Y Z