Song name
# A B C D E F G H I J K L M N O P Q R S T U V W X Y Z

Bad Books - Forest Whitaker tab

-------------------------------------------------------------------------------
FOREST WHITAKER – Bad Books
-------------------------------------------------------------------------------
Tabbed by: thenerdywolfe
E-mail: jacksonrenner@bellsouth.net

I tabbed this from their live performance here: (http://www.youtube.com/watch?
v=TujZ_VrfSpw&feature=related). It allows you to hear everything clearer… I did 
not include every part of the song because everything tabbed is just repeated for 
the other verses, bridge, etc. The strumming and muting can be done in any form 
you want (not exactly how I tabbed). E-mail me if there’s any problems, enjoy!

Tuning: half-step down (Eb Ab Db Gb Bb eb)

Intro
Guitar 1 and 2:
e|----------------------------------------|
B|----------------------------------------|
G|---55555555-----------------------------|     x2
D|---55555555-22222222-33333333-55555555--|
A|---33333333-22222222-33333333-55555555--|
E|------------00000000-11111111-33333333--|
     xxxxxxxx xxxxxxxx xxxxxxxx xxxxxxxx

Guitar 3 or whistled:
e|--------------------------------------------|
B|----------12-----10-12-13--12-10----10------|
G|--12-9-12------------------------12----9/7--| x2
D|--------------------------------------------|
A|--------------------------------------------|
E|--------------------------------------------|

1st verse
Guitar 1 and 2: “We started a fire..”
e|----------------------------------------|
B|----------------------------------------|
G|---55555555-----------------------------|     x4
D|---55555555-22222222-33333333-55555555--|
A|---33333333-22222222-33333333-55555555--|
E|------------00000000-11111111-33333333--|
     xxxxxxxx xxxxxxxx xxxxxxxx xxxxxxxx

Chorus
Guitar 1: “I know..”
e|----------------------------------------------------------------|
B|----------------------------------------------------------------|
G|----------------------------------------------------------------|
D|---33333333-55555555-10101010-9999-7777-5555-33333333-55555555--|
A|---33333333-55555555-10101010-9999-7777-5555-33333333-55555555--|
E|---11111111-33333333-8-8-8-8--7777-5555-3333-11111111-33333333--|
     xxxxxxxx xxxxxxxx xxxxxxxx  xxxx xxxx xxxx xxxxxxxx xxxxxxxx

Guitar 2:
e|---------------------0000-3333-0000-3333--------------------|
B|---------------------1111-0000-1111-0000--------------------|
G|---------------------0000-0000-2222-0000--------------------|
D|---33333333-55555555-2222-0000-2222-0000-33333333-55555555--|
A|---33333333-55555555-3333-2222-0000-2222-33333333-55555555--|
E|---11111111-33333333------3333------3333-11111111-33333333--|
     xxxxxxxx xxxxxxxx xxxx xxxx xxxx xxxx xxxxxxxx xxxxxxxx

Guitar 3: (with an F-chord formation the whole time)
e|---1---3---8--8---7-7--5-5--3-3--1---3--|
B|---1---3-------------------------1---4--|
G|---2---4----9--9---8-8--6-6--4-4-2---5--|
D|---3---5----10-10--9-9--7-7--5-5-3---5--|
A|----------------------------------------|
E|----------------------------------------|



Solo
Guitar 2:
e|-----------------------------------------------|
B|-----------------8-12/8----6-10/6----8-12/8-5--|
G|-------9-12/9----------------------------------|      x2
D|----/10--------/9--------/7--------/9----------|
A|-----------------------------------------------|
E|-----------------------------------------------|


************************************

| /   slide up
| \   slide down
| h   hammer-on
| p   pull-off
| ~   vibrato
| +   harmonic
| x   Mute note
| b   Bend
| pb  Pre-bend
| br  Bend release
| pbr Pre-bend release
| brb Bend release bend

************************************
Tap to rate this tab
 
# A B C D E F G H I J K L M N O P Q R S T U V W X Y Z