Song name
# A B C D E F G H I J K L M N O P Q R S T U V W X Y Z

Bad Brains - At The Movies tab

Help us improve GuitareTab! Take a short survey!
     E---------5-------5-------5-------5----------------------------|
     B-------5-------5--------5------5------------------------------|
     G-----5------5---------5------5--------------------------------|
     D---7------6---------5------4----------------------------------|
     A--------------------------------------------------------------|
     E--------------------------------------------------------------|

     E---------5-------5-------5-------5--5 ---2-h3-p2---5----------|
     B-------5-------5--------5------5-------------------5----------|
     G-----5------5---------5------5--------------------------------|
     D---7------6---------5------4----------------------------------|
     A--------------------------------------------------------------|
     E--------------------------------------------------------------|

     E----------------------------------------------------------------|
     b----------------------------------------------------------------|
     G-----------------------------------------5-5-5-5-5-5-5-5--7-7-7-|
     D-----2-2-2-2-2-2-2-2---2-2-2-2-2-2-2-2---5-5-5-5-5-5-5-5--7-7-7-|
     A-----0-0-0-0-0-0-0-0---0-0-0-0-0-0-0-0---3-3-3-3-3-3-3-3--5-5-5-|
     E-----0-0-0-0-0-0-0-0---3-3-3-3-3-3-3-3--------------------------|

     E-------------5--------5----------------------------------------|
     B-------------5--------5----------------------------------------|
     G----------------------------5-5-5---7-7-7----------------------|
     D------2-2--------2-2--------5-5-5---7-7-7----------------------|
     A------0-0--------0-0--------3-3-3---5-5-5----------------------|
     E------0-0--------3-3-------------------------------------------| X2
Related for At The Movies tab