Song name
# A B C D E F G H I J K L M N O P Q R S T U V W X Y Z

Bad Brains - Right Brigade tab

-------------------------------------------------------------------------------
			                    Right Brigade - Bad Brains
-------------------------------------------------------------------------------

Tabbed by: Jackal

Tuning: Standard

Intro
e|---------------------------------------|
B|---------------------------------------|
G|---------------------------------------|
D|-----------------4-4-4-44--------------|
A|--10-10-10-1010--6-6-6-66--5-5-5-55----|
E|---8--8--8--8-8------------3-3-3-33----| 

Verse
e|---------------------------------------|
B|---------------------------------------|
G|---------------------------------------|
D|---------------------------------------|
A|--10-10--4--4--9--9--9--9--------------|
E|--8--8---2--2--7--7--7--7--------------|

Bridge
e|---------------------------------------|
B|---------------------------------------|
G|---------------------------------------|
D|--99-9999-55-4-44-4444444444444444-----|
A|--77-7777-33-2-22-2222222222222222-----|
E|------------------****************-----|

Chorus
e|-----------------------------------------|
B|-----------------------------------------|
G|-----------------------------------------|
D|-----------------------------------------|
A|--4444444444444444-666-777-666-777-66-22-|
E|--2222222222222222-444-555-444-555-44-00-|


Intro x2
Verse x4
Bridge x2
Verse x4
Bridge x2
Chorus until end
Tap to rate this tab
 
# A B C D E F G H I J K L M N O P Q R S T U V W X Y Z