Song name
# A B C D E F G H I J K L M N O P Q R S T U V W X Y Z

Bad Brains - Big Takeover tab

-------------------------------------------------------------------------------
			     Big take over - Bad brains
-------------------------------------------------------------------------------
Tabbed by:
Email:

Tuning:standard

e|--15p0-14p0-13p0-12p0-11p0-10p0-9p0-8p0-7p0--------------------------------|
B|--------------------------------------------7p0-6p0-5p0-4p0-3p0------------|
G|----------------------------------------------------------------5p0-4p0-3p0|
D|---------------------------------------------------------------------------|
A|----Intro------------------------------------------------------------------|
E|---------------------------------------------------------------------------|

e|---------------------------------------------------------------------------|
B|---------------------------------------------------------------------------|
G|--2p0-1p0------------------------------------------------------------------|
D|---------------------------------------------------------------------------|
A|--------------------------5/13--------7-7-7-7-7-7-7-7-7-7-7-7-------8---5-6|
E|----------------5---------------------5-5-5-5-5-5-5-5-5-5-5-5-------6---3-4|
                                        x x x x x x x x x x x x
e|---------------------------------------------------------------------------|
B|---------------------------------------------------------------------------|
G|----------Verse------------------------------------------------------------|
D|---------------------------------------------------------------------------|
A|---7-7-7-7-7-7-7-9-9-7-5-7-7-7-7-----3-3-----2-2---------------------------|
E|---5-5-5-5-5-5-5-5-5-5-5-5-5-5-5-----3-3-----2-2---------------------------|

e|----------Bridge-----------------------------------------------------------|
B|---------------------------------------------------------------------------|
G|--5-5-3-5-3-5-3-3-----------10-10-10-10-10-10-10-10-8-8-8-8-8-8-8-8--------|
D|--5-5-3-5-3-5-3-3--3--------10-10-10-10-10-10-10-10-8-8-8-8-8-8-8-8--------|
A|--3-3-1-3-1-3-1-1--3--------8--8--8--8--8--8--8--8--6-6-6-6-6-6-6-6--------|
E|-------------------1-------------------------------------------------------|




************************************

| /   slide up
| \   slide down
| h   hammer-on
| p   pull-off
| ~   vibrato
| +   harmonic
| x   Mute note
| b   Bend
| pb  Pre-bend
| br  Bend release
| pbr Pre-bend release
| brb Bend release bend
Tap to rate this tab
 
# A B C D E F G H I J K L M N O P Q R S T U V W X Y Z