Song name
# A B C D E F G H I J K L M N O P Q R S T U V W X Y Z

Bad Brains - Pay To Cum tab

alright, stop posting incorect tablature already!!!! this is 100%

INTRO x6
e------------|
B------------|
G------------|
D-5555-77----|
A-3333-55-55-|
E---------33-|

VERSE              |  x4
e------------------|------------|
B------------------|------------|
D------------------|------------|
G------------------|-5555-77----|
A-3333333333333333-|-3333-55-55-|
E-1111111111111111-|---------33-|
  |______pm_______|

CHORUS x4
e---------------------------|-------------|
B---------------------------|-------------|
G---------------------------|-------------|
D-1010101010109-------------|---7---7--7~-|
A--8-8-8-8-8-87-10-77777777-|-7-5-7-5-75~-|
E----------------8-55555555-|-5---5---5---|

the song repeats this and then end on C5

SUBMITTED BY: DAN MESSING
Tap to rate this tab
 
# A B C D E F G H I J K L M N O P Q R S T U V W X Y Z