Song name
# A B C D E F G H I J K L M N O P Q R S T U V W X Y Z

Bad Brains - Dont Need It tab

Band - Bad Brains
Song - Don't Need It
Album - Bad Brains

Tabbed By: Tyler Freear (SumFX)

Tuning: Standard (E A D G B E)

An Awesome Track That Really Shows What The Brains Were About!

k=Keep Bending While Tremolo Picking
b=Bend
(x)=Bend Note To The Pitch Inside The Brackets
p=Pull Off
h=Hammer On


Intro
Tremolo Pick While Playing This Riff
|---------------------------|
|---------------------------|
|---------------------------|
|---------------------------|
|-4h5p4h5p4h5p4-------------|
|---------------77-55-44-00-|

Verse
|---------------------|
|---------------------|
|-99-9-77-7-66-6-77-7-|
|-99-9-77-7-66-6-77-7-|
|-77-7-55-5-44-4-55-5-|
|---------------------|

Chorus
|----------------------------|
|----------------------------|
|-121212121212-121212121212--|
|-121212121212-121212121212--|
|-101010101010-101010101010--|
|----------------------------|

Solo
Now This Solo Is Not 100%, But It Follows The Guidlines Dr.Know Is Playing.
A Lot Of This Solo Is Tremolo Picked So Keep Your Ear Out For It.

|-------------------------|-------------------|
|-15b(17)-15p13-15p13-----|-------------------|
|---------------------14--|-12-14(16)r-12-----|
|-------------------------|---------------14--|
|-------------------------|-------------------|
|-------------------------|-------------------|

|-------------------------------------------171717-----------|
|-----------------------------151515-171717--------191919-17-|
|---------------141414-161616--------------------------------|
|-141414-171717----------------------------------------------|
|------------------------------------------------------------|
|------------------------------------------------------------|

|--------------15(17)kk-------------|
|-171717-15-------------171717-1515-|
|-----------16----------------------|
|-----------------------------------|
|-----------------------------------|
|-----------------------------------|

|-----------------17-15----15--------|
|-15(17)kk-13-----------17----17-15--|
|-------------14---------------------|
|------------------------------------|
|------------------------------------|
|------------------------------------|

|----------------|----------------------------------------------|
|----------------|----------------------------------------------|
|-14--14141412---|----------------------------------------------|
|-------------14-|-12h14p12h14p12h14p12--etc--------------------| 
|----------------|----------------------------------------------|
|----------------|-------Continue-This-Down-The-Neck-Sloppily---|

Outro
|-------------------|
|-------------------|
|-6/77\66/77\66/7---|
|-6/77\66/77\66/7---|
|-4/55\44/55\44/5---|
|-------------------|

Intro x8
Verse x8
Chorus
Intro x4
Verse x4
Solo (Rhythm Plays Verse x4)
Outro x4

Don't Worry Too Much About The Solo, Dr.Know Always Improvises Live.
Tap to rate this tab
 
# A B C D E F G H I J K L M N O P Q R S T U V W X Y Z