Song name
# A B C D E F G H I J K L M N O P Q R S T U V W X Y Z

Bad Brains - Big Takeover tab

Here it is Big Takeover by the Bad Brains. I am sure it is very accurate.


Intro:
In the intro first you tap from the 15th Fret all the way down the fretboard, also when 
reach the 7th fret change to the b-string, then at the 3rd fret you move to the 5th fret 
the g-string then finish at the 1st fret. Then right from that you play this...
e------------------------------------------------------------------------------------|
b------------------------------------------------------------------------------------|
g------------------------------------------------------------------------------------|
d-------------7-7-7-7-7-7-7-7-7-7-7-7-7-7-7------------------------------------------|
a----5/13-----7-7-7-7-7-7-7-7-7-7-7-7-7-7-7-----7-7-7--------------------------------|
E-5-----------5-5-5-5-5-5-5-5-5-5-5-5-5-5-5------------3-4---------------------------|

Verse: Repeat 4x
e------------------------------------------------------------------------------------|
b------------------------------------------------------------------------------------|
g------------------------------------------------------------------------------------|
d-7-7-7-7-7-7-7-7-7-7---7-------------4-4--------------------------------------------|
a-7-7-7-7-7-7-7-7-7-7-8-7-----3-3-----4-4--------------------------------------------|
E-5-5-5-5-5-5-5-5-5-5-5-5-----3-3-----2-2--------------------------------------------|

Chorus: Repeat 2x
e------------------------------------------------------------------------------------|
b------------------------------------------------------------------------------------|
g------------------------------------------------------------------------------------|
d-7-7-7-7-7-7-7-7-7-7---7-------------4-4--------------------------------------------|
a-7-7-7-7-7-7-7-7-7-7-8-7-----3-3-----4-4--------------------------------------------|
E-5-5-5-5-5-5-5-5-5-5-5-5-----3-3-----2-2--------------------------------------------|

Bridge 1:
e------------------------------------------------------------------------------------|
b------------------------------------------------------------------------------------|
g-8-8-7-8-7-8-7-----11-11-11-11-11-11-11-11------10-10-10-10-10-10-10-10-------------|
d-8-8-7-8-7-8-7-----11-11-11-11-11-11-11-11------10-10-10-10-10-10-10-10-------------|
a-6-6-5-6-5-6-5----- 9 - 9 - 9 - 9 - 9 - 9 - 9 - 9 ------ 8 - 8 - 8 - 8 - 8 - 8 - 8 - 8 -------|
E----------------------------------------------------------------------------------|

Bridge 2:
e------------------------------------------------------------------------------------|
b------------------------------------------------------------------------------------|
g------------------------------------------------------------------------------------|
d-7-x7-x7-x7-x7-x7-x7-x7-x7-x7-x7-x7-x7-x7-x7-x7-7-----------------------------------|
a-7-x7-x7-x7-x7-x7-x7-x7-x7-x7-x7-x7-x7-x7-x7-x7-7-----------------------------------|
E-5-x5-x5-x5-x5-x5-x5-x5-x5-x5-x5-x5-x5-x5-x5-x5-5-----------------------------------|

e------------------------------------------------------------------------------------|
b------------------------------------------------------------------------------------|
g------------------------------------------------------------------------------------|
d-7-x7-x7-x7-x7-x7-x7-x7-x7-x7-x7-x7-x7-x7-x7-x7-7-----------------------------------|
a-7-x7-x7-x7-x7-x7-x7-x7-x7-x7-x7-x7-x7-x7-x7-x7-7-----------------------------------|
E-5-x5-x5-x5-x5-x5-x5-x5-x5-x5-x5-x5-x5-x5-x5-x5-5-----------------------------------|

e------------------------------------------------------------------------------------|
b------------------------------------------------------------------------------------|
g------------------------------------------------------------------------------------|
d-7-x7-x7-x7-x7-x7-x7-x7-x7-x7-x7-x7-x7-x7-x7-x7-7-----------------------------------|
a-7-x7-x7-x7-x7-x7-x7-x7-x7-x7-x7-x7-x7-x7-x7-x7-7-----------------------------------|
E-5-x5-x5-x5-x5-x5-x5-x5-x5-x5-x5-x5-x5-x5-x5-x5-5-----------------------------------|

e------------------------------------------------------------------------------------|
b------------------------------------------------------------------------------------|
g------------------------------------------------------------------------------------|
d-7-7-7-7-7-7-7-7-7-7-7-7-7-7-7-7-7--------------------------------------------------|
a-7-7-7-7-7-7-7-7-7-7-7-7-7-7-7-7-7--------------------------------------------------|
E-5-5-5-5-5-5-5-5-5-5-5-5-5-5-5-5-5--------------------------------------------------|

Outro:
e------------------------------------------------------------------------------------|
b------------------------------------------------------------------------------------|
g-8-8-7-8-7-8-7-----11---------------------------------------------------------------|
d-8-8-7-8-7-8-7-----11---------------------------------------------------------------|
a-6-6-5-6-5-6-5----- 9 --------------------------------------------------------------|
E------------------------------------------------------------------------------------|


Order of Play:
Intro
Verse
Chorus
Bridge 1
Verse
Chorus
Bridge 1
Chorus
Bridge 2
Verse
Verse
Outro

You can contact I at my e-mail address: iloveijah@mac.com

All praises bided to JAH RAS TAFARI.
Tap to rate this tab
# A B C D E F G H I J K L M N O P Q R S T U V W X Y Z