Song name
# A B C D E F G H I J K L M N O P Q R S T U V W X Y Z

Bad Company - Every Thing I Need tab

Help us improve GuitareTab! Take a short survey!
“Everything I Need” by: Bad Company
Tabbed by: I3adCompany@gmail.com

Intro/Verse:
e-------------------------------------------|
B-------------------------------------------|
G---5(4x)----7(2x)--------------------------|
D---3---------5----------5(4x)---7(2x)------|
A-------------------------3--------5--------|
E-------------------------------------------|

Chorus:
e-------------------------------------------|
B-------------------------------------------|
G---0----7*---5-----------------------------|
D---0----5*---3----7*---5-------------------|
A--------------------5*---3----5*-----------|
E--------------------------------3*---------|

That’s pretty much the whole song, I haven’t figured out the outro yet and as soon as I 
it, I’ll put it on. By the way, email me (email at top) how i did (its my first tab).
Related for Every Thing I Need tab