Song name
# A B C D E F G H I J K L M N O P Q R S T U V W X Y Z

Bad Company - Gone Gone Gone tab

#----------------------------------PLEASE NOTE--------------------------------#
#This file is the author's own work and represents their interpretation of the#
#song. You may only use this file for private study, scholarship, or research.#
#-----------------------------------------------------------------------------#
#-----------------------------------------------------------------------------#
#   If you like this tab, please rate it above.  Thank you.
#-----------------------------------------------------------------------------#

Tabbed by John Shaw (jashaw@shaw-web.net)

From the Album-"Desolation Angels" 1979
Written by Boz Burrell

|--------------------|---------------------|
|--------------------|---------------------|
|--4-6-----3/4-6-----|-3/4-6-----3/4-6-----|
|--5-7-999-4/5-7-999-|-4/5-7-999-4/5-7-999-|
|--5-7-777-4/5-7-777-|-4/5-7-777-4/5-7-777-|
|------000-------000-|-------000-------000-|
                       Yeah--------ah
(Play twice)
|------------0------|------------------------------------------------------------|
|------------0------|------------------------------------------------------------|
|------------0------|-------------------------------------------4-6-----3/4-6----|
|------------9------|-------------------------------------------5-7-999-4/5-7-999|
|------------7------|-------------------------------------------5-7-777-4/5-7-777|
|------------0------|---------------------------------------------------------000|
 Well I been havin' a little trouble Lord But I'm keeping it together       Yeah               
            My baby just walked out the door She said this time forever        

|--------------------------------|--------------------|
|--------------------------------|--------------------|
|--------------------------------|--------------------|
|-5-7----------------------------|---6----------------|
|-5-7----------------------------|---6----------------|
|-3-5----------------------------|---3----------------|
     It ain't the first time baby, Baby it won't be the last

|--------------------------------|--------------------|-------------------|
|--------------------------------|--------------------|-------------------|
|--------------------------------|---4----------------|--9-9--9--9--------|
|-4------------------------------|---4----------------|--9-9--9--9--------|
|-4------------------------------|---2----------------|-7-9-10-11---------|
|-2------------------------------|--------------------|-------------------|
  I’d better get the boys 'round, And do some drinkin' fast

(Repeat once)
|--------------------------3-|-----------2------------------------2------------|
|---------------------------3|------------2------------------------4-----------|
|------------3-----4-----5---|-------------3---------------------4--4----------|
|------------3-----4-----5---|---------4-------------------------4-------------|
|------------0-----2-----3---|---------4-------------------------2-------------|
|----------------------------|---------2---------------------------------------|
'Cause she's gone, gone, gone, I don't know if I'm happy I don't know if I'm sad
       She's gone, gone, gone, I don't know if I'll cry, I don't know if I'll die 

|--------------------|---------------------|
|--------------------|---------------------|
|--4-6-----3/4-6-----|-3/4-6-----3/4-6-----|
|--5-7-999-4/5-7-999-|-4/5-7-999-4/5-7-999-|
|--5-7-777-4/5-7-777-|-4/5-7-777-4/5-7-777-|
|------000-------000-|-------000-------000-|
laughin'

(Repeat four times)
|------------0------|------------------------------------------------------------|
|------------0------|------------------------------------------------------------|
|------------0------|-------------------------------------------4-6-----3/4-6----|
|------------9------|-------------------------------------------5-7-999-4/5-7-999|
|------------7------|-------------------------------------------5-7-777-4/5-7-777|
|------------0------|---------------------------------------------------------000|
 Well I'm gonna miss your lovin' and your perfume and your smile
 I'm gonna miss your stealin' all my booze and talkin' all the while       
 I'm gonna miss you Cleanin' 'round the home and helpin' with my blues
  You know I think I'll get myself a maid And take her on a cruise    yeah

|--------------------------------|--------------------|
|--------------------------------|--------------------|
|--------------------------------|--------------------|
|-5-7----------------------------|-5------------------|
|-5-7----------------------------|-5------------------|
|-3-5----------------------------|-3------------------|
     It ain't the first time baby, Baby it won't be the last

|--------------------------------|---3-5--------------|-------------------|
|--------------------------------|---3-5--------------|-------------------|
|--------------------------------|---3-5--------------|--9-9--9--9--------|
|-4------------------------------|---3-5--------------|--9-9--9--9--------|
|-4------------------------------|---3-5--------------|-7-9-10-11---------|
|-2------------------------------|---3-5--------------|-------------------|
  I’d better get the boys 'round, And do some drinkin' fast

(Play twice)
|--------------------------3-|-----------2------------------------2------------|
|---------------------------3|------------2------------------------4-----------|
|------------3-----4-----5---|-------------3---------------------4--4----------|
|------------3-----4-----5---|---------4-------------------------4-------------|
|------------0-----2-----3---|---------4-------------------------2-------------|
|----------------------------|---------2---------------------------------------|
'Cause she's gone, gone, gone, I don't know if I'm happy I don't know if I'm sad
       She's gone, gone, gone, I don't know if I'll cry, I don't know if I'll die 

(Play twice) (Lead Break)
|------------0------|------------------------------------------------------------|
|------------0------|------------------------------------------------------------|
|------------0------|-------------------------------------------4-6-----3/4-6----|
|------------9------|-------------------------------------------5-7-999-4/5-7-999|
|------------7------|-------------------------------------------5-7-777-4/5-7-777|
|------------0------|---------------------------------------------------------000|
laughin'
   
|--------------------------------|----------------------|
|--------------------------------|----------------------|
|--------------------------------|----------------------|
|-5-7----------------------------|---5------------------|
|-5-7----------------------------|---5------------------|
|-3-5----------------------------|---3------------------|
     It ain't the first time baby, Baby it won't be the last

|--------------------------------|---3-5--------------|-------------------|
|--------------------------------|---3-5--------------|-------------------|
|--------------------------------|---3-5--------------|--9-9--9--9--------|
|-4------------------------------|---3-5--------------|--9-9--9--9--------|
|-4------------------------------|---3-5--------------|-7-9-10-11---------|
|-2------------------------------|---3-5--------------|-------------------|
  I’d better get the boys 'round, And do some drinkin' fast

(Play twice)
|--------------------------3-|-----------2------------------------2------------|
|---------------------------3|------------2------------------------4-----------|
|------------3-----4-----5---|-------------3---------------------4--4----------|
|------------3-----4-----5---|---------4-------------------------4-------------|
|------------0-----2-----3---|---------4-------------------------2-------------|
|----------------------------|---------2---------------------------------------|
'Cause she's gone, gone, gone, I don't know if I'm happy I don't know if I'm sad
       She's gone, gone, gone, I don't know if I'll cry, I don't know if I'll die 

(Repeat and Fade) (Outro Lead)
|--------------------|---------------------|
|--------------------|---------------------|
|--4-6-----3/4-6-----|-3/4-6-----3/4-6-----|
|--5-7-999-4/5-7-999-|-4/5-7-999-4/5-7-999-|
|--5-7-777-4/5-7-777-|-4/5-7-777-4/5-7-777-|
|------000-------000-|-------000-------000-|
Laughin’


Ah yeah,

I don't know if I'll cry, 

I don't know if I'll die laughin’

I'm keeping it together

Yes, She's gone, gone, gone,

I'm keeping it together

Oh, She's gone, gone, gone, gone, gone.........
Tap to rate this tab
# A B C D E F G H I J K L M N O P Q R S T U V W X Y Z