Song name
# A B C D E F G H I J K L M N O P Q R S T U V W X Y Z

Bad Company - Love Me Somebody tab

This is the piano mix for guitar, With the lead.
It's good for a second guitar.
This is meant to complement my first tab of this song.
 Tabbed by Hank Trammell @ U-G on 4-26-09.

  (intro.start)---------------------------(end)       L M somebody
  C    G    F          C     F    G            C            G
E|---------|----1-1-1-|------1---|-------1----|------------|-----------|
B|-------3----1-1-1-1--1-+-+--1----3-+-+-1------1-+-+-+-1-+-3-+-+-+-----|
G|---0--4----2--2-2-2--0-+-+---2---4-+-+---4----0-+-+-+-0-+-4-+-+-+--4--|
D|--2--5----3---3-3-1--2-+-+-------5-+-+---5-3--2-+-+-+-2-+-5-+-+-+-5---|
A|-3-------------------3-+-+--------------------3-+-+-+-3-+-------------|
E|----------------------------------------------------------------------|

       S L me  T M F what I'm   W   B O L me    B O L me            Well T
F          C         F     G     C    F     C     G    C
----------|---------|-----------|----------|----------|------1--|----------|
-1-+-+---1---------1-1-+-+-3-+-+-1-+-+-1----------3-----------1--1------1--|
-2-+-+--2--0-+-+--0--2-+-+-4-+-+-0-+-+-2--2-0-----4--4-0-------0-0-------0-|
-3-+-+-3---2-+-+-2---3-+-+-5-+-+-2-+-+-3-3--2-----5-5--2-----------2-+-2---|
-----------3-+-+-----------------3-+-+------3-3-+------3-3-+-------3-+-----|
---------------------------------------------------------------------------|

was a crazy fool    Who F Y   home F school I W hop Y W know      But you
 F     G      C         F      G      C         F      G      C
-1-+-+-3-+-+-|---------|-1-+-+-3-+-+-|---------|-1-+-+-3-+-+-|----------|
-1-+-+-3-+-+--1-+-+--1---1-+-+-3-+-+--1-+-+--1---1-+-+-3-+-+--1-+----1---|
-2-+-+-4-+-+--0-+-+---0--2-+-+-4-+-+--0-+-+---0--2-+-+-4-+-+--0-+---0----|
-3-+-+-5-+-+--2-+-+-2----3-+-+-5-+-+--2-+-+-2----3-+-+-5-+-+--2-+--2-----|
--------------3-+-+-------------------3-+-+-------------------3-+-3------|
-------------------------------------------------------------------------|

didn't K           And Y were B my heart                    L me somebody
F                                    C        G         C         G
-1+1-1-1+1+-1-1-1-|1+-1-1-1+1+1-1-1-|--------|--3!-$---|--------|--3-+------|
-1+1-1-1+1+-1-1-1--1+-1-1-1+1+1-1-1--1+-1---1---3!-$-----1-+----1--3-+--3---|
-2+2-2-2+2+-2-2-1--2+-2-2-2+2+2-2-2--0+--0--0---4!-$-4---0-+---0---4-+---4--|
-3+3-3-3+3+-3-3-3--3+-3-3-3+3+3-3-3--2+2--2-2--5---$--5--2-+--2---5----5----|
-------------------------------------3+-----3------------3-+-3--------------|
----------------------------------------------------------------------------|

      S L me T M F what I'm  Worth B O L me   B O L me             Well I
 F        C       F     G     C    F     C    G      C
------1+-|-------|-1-++-3-++-|-----1----|-------3---|-----------|------------|
------1+---1+--1+--1-++-3-++--1-++-1-------1-+--3------1-+--1-1----1-1--1-1--|
--2-2-2+---0+--0+--2-++-4-++--0-++-2-2-----0-+--4------0-+--0-0----0-0--0-0--|
-3-3--3+---2+--2+--3-++-5-++--2-++-3--3----2-+-5--5----2-+--2-2----2-2--2-2--|
----------3---3---------------3-++--------3-----------3----3------3----3-----|
-----------------------------------------------------------------------------|

W T crazy fool   Who F Y home F school  I W H Y would  know  B Y H T go
 F    G     C         F     G     C         F     G     C         F
-1+-+-3+-+-|---------|-1+-+-3+-+-|---------|-1+-+-3+-+-|---------|--1+---1---|
-1+-+-3+-+--1-1-1--1---1+-+-3+-+--1-1-1--1---1+-+-3+-+--1-1-1--1----1+---1---|
-2+-+-4+-+--0-0-0---0--2+-+-4+-+--0-0-0---0--2+-+-4+-+--0-0-0---0---2+---2---|
-3+-+-5+-+--2-2-2-2----3+-+-5+-+--2-2-2-2----3+-+-5+-+--2-2-2-2---3---3-3----|
------------3-3-3-----------------3-3-3-----------------3-3-3----------------|
-----------------------------------------------------------------------------|

Breaking M heart     |(solo start)========================================
F          C         |G             C           G            F
----1---1-|----------|-3-+-+-3-+-+-|-----------|---3-3--3-3-|--1-1--1-1--|
----1---1---1-1--1-1-|-3-+-+-3-+-+----1-1--1-1-----3-3--3-3----1-1--1-1---|
----2---2---0-0--0-0-|-4-+-+-4-+-+----0-0--0-0----4--4--4-4----2-2--2-2---|
-3-3-3-3----2-2--2-2-|-5-+-+-5-+-+----2-2--2-2---5-----5------3----3------|
-----------3----3----|---------------3----3-------------------------------|
---------------------|-------------|-----------|------------|------------|
                     |
                     |
                     |-------8-----|--$--------|------------|-------------|
                     |--------8-------$--8--8------8+-+---------6---8--8--|
                     |---------7B++---$--7B-7-5--7B------------7B---7B-7--|
                     |----------------------------------------------------|
                     |----------------------------------------------------|
                     |-------------|-----------|------------|-------------|

|========================================================================
|C              F      G       C           F         C        G
|--------------|---1-1---3-3-|----------------1-1---|------------3-3----|
|---1-1----1-1-----1-1---3-3---------1-1------1-1--------1-1-----3-3----|
|---0-0----0-0-----2-2---4-4---------0-0------2-2--------0-0-----4-4----|
|---2-2----2-2---3-----5-------------2-2----3------------2-2---5--------|
|-3------3-------------------------3-------------------3----------------|
|--------------|-------------|----------------------|-------------------|
|
|
|--------------|-------------|----------------------|-------------------|
|-8--8---8---------10-----15---17h18-17-13-15b-15-------15-15h17-15B+---|
|-7B-7-5-7B>p5---/9----/14------------------------17--17----------------|
|-----------------------------------------------------------------------|
|-----------------------------------------------------------------------|
|--------------|-------------|----------------------|-------------------|


|================(end solo)=|        L M somebody Yeah        Somebody L
|C             G             C             G             F
|-------------|---3-3---3-3-|-------------|-3-3-3-3-3-3-|-1-1-1-1-1-1--|
|---1-1---1-1-----3-3---3-3---1-1-1-1-1-1---3-3-3-3-3-3---1-1-1-1-1-1---|
|---0-0---0-0-----4-4---4-4---0-0-0-0-0-0---4-4-4-4-4-4---2-2-2-2-2-2---|
|---2-2---2-2---5-----5-------2-2-2-2-2-2---5-5-5-5-5-5---3-3-3-3-3-3---|
|-3-----3---------------------3-3-3-3-3-3-------------------------------|
|-------------|-------------|-------------|-------------|--------------|
|                           |
|                           |
|-------------|----15-------|
|-15B>-----$----15B__15G>---|
|------17--$----------------|
|---------------------------|
|---------------------------|
|-------------|-------------|

 me   T M F what   I'm   worth            B O L me   B O L me    B O L
 C            F     G      C              F     C    G      C    F
-------------|--1-1---3-3-|---------|--------1+-|-------3+-|--------1+---|
---1-1---1-1----1-1---3-3----1-----1----$----1+----1+---3+-----1+---1+---|
---0-0---0-0----2-2---4-4----0----0-----$----2+----0+---4+-----0+---2+---|
---2-2---2-2--3-----5--------2---2------$--3-------2+-5--------2+-3------|
-3-----3-------------------3----3-------$--------3-----------3-----------|
-------------------------------------------------------------------------|

 me B O L me  B O L--- me--|====(short end lick)=========|
 C   G    C   F    C   G    C     F      C       G        C
------3+-|-----1+-|-----3+-|--------1+---|---------3+----|------|1-3-5-7-8---|
--1+--3+---1+--1+---1+--3+-|---1+---1+-------1+----3+----|---1+-|------------|
--0+--4+---0+--2+---0+--4+-|---0+---2+-------0+----4+----|--0---|------------|
--2+-5-----2+-3-----2+-5---|---2+--3---------2+---5------|-2----|------------|
-3--------3--------3-------|--3------------3-------------|3-----|------------|
---------------------------|-----------------------------|------|------------|
                           |                             |      |
                           |----10B-10-8-|---------------|------|
                           |--------------8B>B>p5--------|------|
                           |---------------------7B7B-7B>p5-----|
                           |-----------------------------|------|
                           |-----------------------------|------|
                           |-----------------------------|------|

Love me somebody,Somebody love me,Take me for what I'm worth,
But only love me,But only love me.

Well there was a crazy fool who followed you home from school hoping you
would say hello, But you didn't know,And you were breaking my heart.

Well I was the crazy fool who followed you home from school, I was hoping that you would 
But you had to go, Breaking my heart.

  ----|----  =  the end of a measure
          /  =  slide up
          h  =  hammer on
          p  =  pull off
          +  =  hold note longer (let ring)
          !  =  stacotto note
          >  =  release bend
          B  =  full bend         (2 frets)
          b  =  1/2 step bend     (1 fret)
          G  =  ghost bend        (bend then pick & release)
          $  =  rest
Tap to rate this tab
 
# A B C D E F G H I J K L M N O P Q R S T U V W X Y Z