Song name
# A B C D E F G H I J K L M N O P Q R S T U V W X Y Z

Bad Company - Cant Get Enough tab

1st & 2nd guitar solo Tabbed by GEQ 11.9.09
the 2nd solo is about 90% complete, still working on it.



Canít get enough of your love-Bad Company
1st GUITAR SOLO

e------------------|------------|-----------|-------------|-----------|
B------------------|-8/10-10-8--|-----------|-8-h10-8--8--|-----------|
G-8/10-10-8-10-8---|----------9-|-9-7-9-7---|--------10-9-|-9-7-9-7---|
D---------------10-|------------|--------10-|-------------|--------10-|
A------------------|------------|-----------|-------------|-----------|
E------------------|------------|-----------|-------------|-----------|

e------------|-----------|--------|----------------|---------|-13-13t-|
B-8/10-10-8--|-----------|-13-13t-|---11-13--11-13-|-13-11---|--------|
G----------9-|-9-7-9-7---|--------|-12-----12------|------12-|--------|
D------------|--------10-|--------|----------------|---------|--------|
A------------|-----------|--------|----------------|---------|--------|
E------------|-----------|--------|----------------|---------|--------|

e|---12-b14-b14-b14t-h12----|-b14-b14-b14t-h12---14-14t-|
B|-14-------------------14t-|-----------------14t-------|
G|--------------------------|---------------------------|
D|--------------------------|---------------------------|
A|--------------------------|---------------------------|
E|--------------------------|---------------------------|

e|---12-b14-b14-b14t-h12----|-b14-b14-b14t-h12---14-14t-|
B|-14-------------------14t-|-----------------14t-------|
G|--------------------------|---------------------------|
D|--------------------------|---------------------------|
A|--------------------------|---------------------------|
E|--------------------------|---------------------------|

e|---12-b14-b14-b14t-h12----|-b14-b14-b14t-h12---b14-|
B|-14-------------------14t-|-----------------14t----|
G|--------------------------|------------------------|
D|--------------------------|------------------------|
A|--------------------------|------------------------|
E|--------------------------|------------------------|

e|-b16-16-16-b14t-|
B|----------------|
G|----------------|
D|----------------|
A|----------------|
E|----------------|









Canít get enough of your love-Bad Company
2nd GUITAR SOLO

e|-------|---------|------11-11-|------11-11-|------11-11-|
B|-16----|-b11-9t\-|------------|------------|------------|
G|---17\-|---------|-10/12------|-10/12------|-10/12------|
D|-------|---------|------------|------------|------------|
A|-------|---------|------------|------------|------------|
E|-------|---------|------------|------------|------------|

e|-b13-h11---11t-|-b13-h11----|-11t-13-11----|------------|
B|--------13t----|--------13t-|----------13\-|-6-h7-6-6---|
G|---------------|------------|--------------|-------8-8t-|
D|---------------|------------|--------------|------------|
A|---------------|------------|--------------|------------|
E|---------------|------------|--------------|------------|

e|----------6-7t-|------------|-------------|---------|--------|
B|----6-8-6------|------------|-------------|---------|--------|
G|-6/8-----8-----|------11-11-|-------11-11-|---11-11-|---11---|
D|---------------|-11/13------|-11/13s------|-13------|-13--13-|
A|---------------|------------|-------------|---------|--------|
E|---------------|------------|-------------|---------|--------|

e|-b13r-h11----|-11-13-b13-b13-b13-b13-11-|-b13-11---------|
B|---------13t-|--------------------------|-------13-11-13-|
G|-------------|--------------------------|----------------|
D|-------------|--------------------------|----------------|
A|-------------|--------------------------|----------------|
E|-------------|--------------------------|----------------|

e|-11-b13r-11---|-11-b13-11----|-------11----|------11-|
B|-11--------13-|----------13t-|-11-11-11-13-|---------|
G|--------------|--------------|-------------|-12-12---|
D|--------------|--------------|-------------|---------|
A|--------------|--------------|-------------|---------|
E|--------------|--------------|-------------|---------|

e|-b10-14-10--13-10--------10-|
B|----------13-----13-10-13---|
G|----------------------------|
D|----------------------------|
A|----------------------------|
E|----------------------------|
Tap to rate this tab
# A B C D E F G H I J K L M N O P Q R S T U V W X Y Z