Song name
# A B C D E F G H I J K L M N O P Q R S T U V W X Y Z

Bad Company - Rock Steady tab

Song:  Rock Steady

Band:  Bad Company

Tuning: Standard 


    Intro (play 1x)
e|-------------------------------------------------------------------------|
B|-------------------------------------------------------------------------|
G|---5------------5------------5-------------------5----7p5----------------|
D|---5--7--7------5--7--7------5--7--7-------------5----7p5--7--7----------|
A|------0--0---------0--0---------0--0-------5--7-----0------0--0----------|
E|-------------------------------------------------------------------------|



     Intro(cont.)and Verse (play 11x)
e|-------------------------------------------------------------------------|
B|-------------------------------------------------------------------------|
G|---5------------5-------------------5----7p5-----------------------------|
D|---5--7--7------5--7--7-------------5----7p5--7--7-----------------------|
A|------0--0---------0--0-------5--7-----0------0--0-----------------------|
E|-------------------------------------------------------------------------|



    Bridge riff                       Chorus         C                  D
e|-------------------------------------------------------------------------|
B|-------------------------------------------------------------------------|
G|---5------------5-------------------5------------------[Barre Chords}----|
D|---5--7--7------5--7--7-------------5----7--5----------------------------|
A|------0--0---------0--0-------5--7-----0---------------------------------|
E|-------------------------------------------------------------------------|
                                       Turn on your light and stay with me


                   C          D      A                                     
e|-------------------------------------------------------------------------|
B|-------------------------------------------------------------------------|
G|--------------------[Barre Chords]---------------------------------------|
D|-------------------------------------------------------------------------|
A|-------------------------------------------------------------------------|
E|-------------------------------------------------------------------------|
      a while, and ease your worried mind.         



                    C                        D     C   D     D   A
e|-------------------------------------------------------------------------|
B|-------------------------------------------------------------------------|
G|---------------------[Barre Chords]--------------------------------------|
D|-------------------------------------------------------------------------|
A|-------------------------------------------------------------------------|
E|-------------------------------------------------------------------------|
      Turn on your light and stay with me a while, and rock stea-dy.
Tap to rate this tab
 
# A B C D E F G H I J K L M N O P Q R S T U V W X Y Z