Song name
# A B C D E F G H I J K L M N O P Q R S T U V W X Y Z

Bad Company - Bad Company tab

E------------------|
B--11----6-----8---|
G--11----6-----8---|
D--11----6-----8---|
A------------------|
E------------------|

E----------------------------------------------------|
B--3-----6-----8------11---11-----10------6------8---|
G--3-----6-----8------11---11-----10------6------8---|
D--3-----6-----8------11---11-----10------6------8---|
A----------------------------------------------------|
E----------------------------------------------------|


E----------------------------------------------------|
B--3-----6-----8------11---11-----10------6------8---|
G--3-----6-----8------11---11-----10------6------8---|
D--3-----6-----8------11---11-----10------6------8---|
A----------------------------------------------------|
E----------------------------------------------------|


E------------------------|
B--6--x--6--x--6----8----|
G--6--x--6--x--6----8----|
D--6--x--6--x--6----8----|
A------------------------|
E------------------------|


E--------------------------------------|
B--------------4-----------------6-----|
G--8-x---------5-----------------7-----|
D--8-x--4-x----6-----------------8-----|
A--6-x--4-x----6-----------------8-----|
E-------2-x----4-----------------6-----|


E-----------------------------------------|
B---------8--------6--------8-------------|
G---------8--------6--------8-------------|
D---------8--------6--------8------8-8----|
A---------6--------4--------6------6-6----|
E-----------------------------------------|


E-------------------------------|
B--2---------------4------------|
G--3---------------5------------|
D--4---------------6------------|
A--4---------------6------------|
E--2---------------4------------|

E-----------------------------------------|
B---------8--------6--------8-------------|
G---------8--------6--------8-------------|
D---------8--------6--------8-------------|
A---------6--------4--------6-------------|
E-----------------------------------------|


E----------------------------------------------------|
B---8/6---6-----11--10---6--4------11--10---6--------|
G---8/6---6-----11--10---6--5------11--10---6--------|
D---8/6---6-----11--10---6--6------11--10---6--------|
A---6/4---4------9---8---4--6-------9---8---4--------|
E---------------------------4------------------------|

E---------------------------------------------------|
B-------------------14------------------------------|
G--------11-13b(15)----(15)r13p11----11-------------|
D--13~~~---------------------------------13~~~------|
A---------------------------------------------------|
E---------------------------------------------------|


E-----------------------14b(15)-(15)r14---11--11~~~-|
B--------------------11-----------------------------|
G----------11---------------------------------------|
D--11--13------13~~~--------------------------------|
A---------------------------------------------------|
E---------------------------------------------------|


E----------------------------------------|
B-(15)r14p11-------------11--------------|
G------------13-11----13----13-11--------|
D---------------------------------13~~~--|
A----------------------------------------|
E----------------------------------------|

E--------14----------14-16-16--|
B-----14----16-14-16-----------|
G-/15--------------------------|
D------------------------------|
A------------------------------|
E------------------------------|

E--16b(18)-16b(18)-16b(18)-16b(18)---14-------------|
B----------------------------------------16~~~------|
G---------------------------------------------------|
D---------------------------------------------------|
A---------------------------------------------------|
E---------------------------------------------------|

E--------14----------------14-------|
B--14-16------16~----14h16----16~~\-|
G-----------------------------------|
D-----------------------------------|
A-----------------------------------|
E-----------------------------------|

E------14b(15)----14-11--------------------------------|
B--11-------------------14-11-------11-14--11--14b(13)-|
G--------------------------------13--------------------|
D------------------------------------------------------|
A------------------------------------------------------|
E------------------------------------------------------|
Tap to rate this tab
# A B C D E F G H I J K L M N O P Q R S T U V W X Y Z