Song name
# A B C D E F G H I J K L M N O P Q R S T U V W X Y Z

Bad Company - Evil Wind tab

Hi, my name's Bobby, I love Bad Company and this is my tab so go easy on me.

Intro:

e:-------:
B:--0-0--:
G:--2-2--:
D:--2-2--: 
A:--0-0--:
E:-------:

Verse Riff:

e:-------------------------:
B:-------------------------:
G:-------------------------:
D:-------------------------: 
A:--------------3--3p0-----:
E:--5--5--3--5----------3--:

Chorus:

e:-----------:-----------:
B:-----------:-----------:
G:--2--5--7--:--7--5--2--:
D:--2--5--7--:--7--5--2--:
A:--0--3--5--:--5--3--0--:
E:-----------:-----------:

Bridge: (chord progression)

D E G D

Outro:

(same as intro)
Tap to rate this tab
# A B C D E F G H I J K L M N O P Q R S T U V W X Y Z