Song name
# A B C D E F G H I J K L M N O P Q R S T U V W X Y Z

Bad Company - Live For The Music tab

-------------------------------------------------------------------------------
			     Live For The Music - Bad Company
-------------------------------------------------------------------------------
Tabbed by: James Malin
Email:

Tuning: eadgbe

In the intro they start by hitting the note with the volume off, then slowly turning it up.


  Intro
e|-------|-------------------------------------------------|
B|-------|-------------------------------------------------|
G|---9---|-9-9---9-9---9-9---9--7---9-9---9-9---9-9---9--7-|
D|---9---|-9-9---9-9---9-9---9--7---9-9---9-9---9-9---9--7-|
A|---7---|-7-7---7-7---7-7---7--5---7-7---7-7---7-7---7--5-|
E|-------|-------------------------------------------------|

                    ( x2 )
e|-------------------------------------------|
B|-------------------------------------------|
G|--9-9---9-9---9---9-9---9-9---9-9---9---7--|
D|--9-9---9-9---9---9-9---9-9---9-9---9---7--|
A|--7-7---7-7---7---7-7---7-7---7-7---7---5--|
E|-------------------------------------------|

          ( x3 )
e|----------------------|               ---------------|
B|----------------------|               ---------------|
G|----------------------|               --9---7--------|
D|----------------------|               --9---7--------|
A|--7--5--7-7-7-7-5-7---|               --7---5--------|
E|----------------------|               ---------------|

                   ( x2 )
e|-------------------------------------------|
B|-------------------------------------------|
G|--9-9---9-9---9---9-9---9-9---9-9---9---7--|
D|--9-9---9-9---9---9-9---9-9---9-9---9---7--|
A|--7-7---7-7---7---7-7---7-7---7-7---7---5--|
E|-------------------------------------------|

          ( x3 )
e|----------------------|               ---------------|
B|----------------------|               ---------------|
G|----------------------|               --9---7--------|
D|----------------------|               --9---7--------|
A|--7--5--7-7-7-7-5-7---|               --7---5--------|
E|----------------------|               ---------------|

                  ( x4 )
e|----------------------------------|
B|----------------------------------|
G|-----9------9------9------7-------|
D|-7h9----7h9----7h9----7h9---7h9-7-|
A|----------------------------------|
E|----------------------------------|

                                ( x2 )
e|--------------------------------------------------------------------|
B|--------------------------------------------------------------------|
G|-------------------------------------------------------------9---7--|
D|-------------------------------------------------------------9---7--|
A|--7--5--7-7-7-7-5-7---7--5-5-5-5h6-6-7---7--5--7-7-7-7-5-7---7---5--|
E|--------------------------------------------------------------------|

start trailing off on the ( x8 ) last two times you repeat
e|--------------------------------------------------|
B|--------------------------------------------------|
G|--9-9---9-9---9-9---9--7---9-9---9-9---9-9---9--7-|
D|--9-9---9-9---9-9---9--7---9-9---9-9---9-9---9--7-|
A|--7-7---7-7---7-7---7--5---7-7---7-7---7-7---7--5-|
E|--------------------------------------------------|

 hold the last 5 on the D for longer than the others
e|--------------------------------------------------------|
B|--------------------------------------------------------|
G|--------------------------------------------------------|
D|---------------5------5-------5-------5-------5-------5-|
A|--7---5h7--7------5h7-----5h7-----5h7-----5h7-----5h7---|
E|--------------------------------------------------------|

  trail off
e|-----------------------------------------|
B|-----------------------------------------|
G|-----------------------------------------|
D|-----------------------------------------|
A|-7h5--7h5--7h5--7h5--7h5--7h5--7h5--7h5--|
E|-----------------------------------------|


| /  slide up
| \  slide down
| h  hammer-on
| p  pull-off
| ~  vibrato
| +  harmonic
| x  Mute note
===============================================================================

I'll try updating with the solo in it. Although this is all you need to play the whole 
but if you want to do the solo that the lead guitarist does I'll try to figure it out. 
fun! Comments are most welcome.
Tap to rate this tab
 
# A B C D E F G H I J K L M N O P Q R S T U V W X Y Z