Song name
# A B C D E F G H I J K L M N O P Q R S T U V W X Y Z

Bad Dogs - Big Meaty Trash tab

|----------------------------------------------------------------|
|----------------------------------------------------------------|
|-2-2---2---x--x--2-2-3--x--x--2--2--x---x-2-2-3---x---x--2-2-3--|
|-0---2---x--x----0----x--x----0-2-x---x---0-----x---x----0------|
|----------------------------------------------------------------|
|----------------------------------------------------------------|

|------------------------------|
|------------------------------|
|-2-2-3-2-/4---4-4-4-----x---x-|
|-2----------4-4-4-4-0-x---x---|
|------------2---2-------------|
|------------------------------|

Thats the verse and chorus as for the solo well its different everytime they play it
Tap to rate this tab
# A B C D E F G H I J K L M N O P Q R S T U V W X Y Z