Song name
# A B C D E F G H I J K L M N O P Q R S T U V W X Y Z

Bad Dogs - Lumber tab

Drop-D Tuning

Intro
e------------------------------------|
B------------------------------------|
G----------------------------2-2-----|
D----2-0-0----0----0-0-0-2-2-2-2-----|
A--2-2-0-0----0----0-0-0-2-2-0---0-0-|
E--2-2-0-0-1--0----0-0-0-2-----------|

Verse
e------------------------------------|
B------------------------------------|
G----------------------------2-2-----|
D-2-2-0-0-1--0-x-x-0-0-0-2-2-2-2-0-0-|
A-2-2-0-0-1--0-x-x-0-0-0-2-2-0-0-0-0-|
E-2-2-0-0-1--0-----0-0-0-2-2-----0-0-|

Chorus
e------------------------------------|
B------------------------------------|
G--6-6-------------------------------|
D--6-6--4------------2-2---0-0---1-1-|
A--4-4--4------------2-2---0-0---1-1-|
E-------4-0-0-0-0-0--2-2---0-0---1-1-|

Solo
e--------------------------------------------------|
B--------------------------------------------------|
G--------------3-5-3-5-3-0-------------------------|
D--3-5-3-5-3-0-------------3-5-3-5-3-0-------------|
A--------------------------------------3-5-3-5-3-0-|
E--------------------------------------------------|

Outro
e---------------------------|
B---------------------------|
G-6-6-----------------------|
D-6-6--4--------------------|
A-4-4--4--------------------|
E------4-0-0-0-0-0-0-0-0-0--|
Tap to rate this tab
# A B C D E F G H I J K L M N O P Q R S T U V W X Y Z