Song name
# A B C D E F G H I J K L M N O P Q R S T U V W X Y Z

Bad Dogs - Masturbate With Chocolate Cake tab

Intro
|------7-7-7~----7--9-9h10--9-7------------------|--------7-7-7~----7-9-9h10--9-5h7--7-7~---|
|------------------------------10-10h12----------|------------------------------------------|
|-8/9-------------------------------------9~-----|---8/9------------------------------------|
|------------------------------------------------|------------------------------------------|
|------------------------------------------------|------------------------------------------|
|------------------------------------------------|------------------------------------------|


|--------------------------------------------------------------5h7-----------------|
|--8/10--10-10~--8h10--8-10-8-8h10--8-7-----------7-7h8--8h10-------10-8-7---------|
|---------------------------------------7~----7-9--------------------------7-7h9~--|
|----------------------------------------------------------------------------------|
|----------------------------------------------------------------------------------|
|----------------------------------------------------------------------------------|


|--------------------------------------------------------------5h7-----------------|
|--8/10--10-10~--8h10--8-10-8--10--8-7------------7-7h8--8h10-------10-8-7---------|
|---------------------------------------7~----7-9--------------------------7-7h9~--|
|----------------------------------------------------------------------------------|
|----------------------------------------------------------------------------------|
|----------------------------------------------------------------------------------|
Tap to rate this tab
 
# A B C D E F G H I J K L M N O P Q R S T U V W X Y Z