Song name
# A B C D E F G H I J K L M N O P Q R S T U V W X Y Z

Bad Dogs - Declined tab

Bad Dogs

Declined

riff 1
e-------------------------------------------|
B-------------------------------------------|
G-------------------------------------------|
D-------------------------------------------|
A-----2-----0-2-3--------3--2--0------------|
E--0-----0---------3--5-----------3--2--0---|

riff 2
e-----------------------------------------------|
B-----------------------------------------------|
G-----------------------------------------------|
D-----------------------------------------------|
A-----0-----2-----0-3-2--------3--2--0----------|
E--0-----0-----0--------3--5-----------3--2--0--|

riff 3
e---------------------------------------------------------|
B---------------------------------------------------------|
G---------------------------------------------------------|
D---------------------------------------------------------|
A-----0-----2-----2-----0-3-2-----------3--2--0-----------|
E--0-----0-----0-----0---------3--2--0-----------3--2--0--|

riff 4
e----------------------------------------------------|
B----------------------------------------------------|
G----------------------------------------------------|
D----------------------------------------------------|
A-----0-----0-2-3----------0-2-3---3--2--0-----------|
E--0-----0-------0-2-3--0-------------------3--2--0--|
Tap to rate this tab
# A B C D E F G H I J K L M N O P Q R S T U V W X Y Z