Song name
# A B C D E F G H I J K L M N O P Q R S T U V W X Y Z

Bad Dogs - Him In Her tab

Intro
e-----------------------------|
B-----------------------------|
G-----------------------------|
D-2---4-4--3---2-2--4-4--3--2-|
A-2---4-4--3---2-2--4-4--3--2-|
E-0---2-2--1---0-0--2-2--1--0-|


Verse 1   play 3 times
e--------------------------------|
B--------------------------------|
G--------------------------------|
D-2--2---4-4-3---2--4-8-8-8-8--0-|
A-2--2---4-4-3---2--4-8-8-8-8--0-|
E-0--0---2-2-1---0--2-6-6-6-6--0-|


Chorus play 8 times
e------------------------------------|
B------------------------------------|
G------------------------------------|
D--2--2---4-4-3---2--4--4-8-8-8-8--0-|
A--2--2---4-4-3---2--4--4-8-8-8-8--0-|
E--0--0---2-2-1---0--2--2-6-6-6-6--0-|

Verse 2   play 3 times
e--------------------------------|
B--------------------------------|
G--------------------------------|
D-2--2---4-4-3---2--4-8-8-8-8--0-|
A-2--2---4-4-3---2--4-8-8-8-8--0-|
E-0--0---2-2-1---0--2-6-6-6-6--0-|


Chorus play 8 times
e------------------------------------|
B------------------------------------|
G------------------------------------|
D--2--2---4-4-3---2--4--4-8-8-8-8--0-|
A--2--2---4-4-3---2--4--4-8-8-8-8--0-|
E--0--0---2-2-1---0--2--2-6-6-6-6--0-|


Outro
e-------------------------------------------------|
B-------------------------------------------------|
G-------------------------------------------------|
D--2--2---4-4-3---2--4--4-8-8-8-8---0--0--4\3-----|
A--2--2---4-4-3---2--4--4-8-8-8-8---0--0--4\3--2--|
E--0--0---2-2-1---0--2--2-6-6-6-6---0--0--2\1--0--|
Tap to rate this tab
# A B C D E F G H I J K L M N O P Q R S T U V W X Y Z