Song name
# A B C D E F G H I J K L M N O P Q R S T U V W X Y Z

Bad Dogs - Oh That Sucks tab

Artist - Bad Dogs

Song - Oh that sucks


 Intro
|---------------------|
|---------------------|
|-x---x---x-x-x-x-x-x-|
|-x---x---x-x-x-x-x-x-|
|-x---x---x-x-x-x-x-x-|
|-x---x---x-x-x-x-x-x-|

play 5 times
|----------------------------------------------------------------|
|----------------------------------------------------------------|
|-2-------2-------2-------2-----------2---------------------0-0--|
|-2-x-2-x-2-x-2-x-2-x-2-x-2-x-2-x-2-x-2--x-x--6/8-8-8-8-8-8-0-0--|
|-2-x-2-x-2-x-2-x-2-x-2-x-2-x-2-x-2-x-2--x-x--6/8-8-8-8-8-8-0-0--|
|-0-x-0-x-0-x-0-x-0-x-0-x-0-x-0-x-0-x-0--x-x--4/6-6-6-6-6-6-0-0--|

verse 1 play 7 times
|----------------------------------------------------------------|
|----------------------------------------------------------------|
|-2-------2-------2-------2-----------2---------------------0-0--|
|-2-x-2-x-2-x-2-x-2-x-2-x-2-x-2-x-2-x-2--x-x--6/8-8-8-8-8-8-0-0--|
|-2-x-2-x-2-x-2-x-2-x-2-x-2-x-2-x-2-x-2--x-x--6/8-8-8-8-8-8-0-0--|
|-0-x-0-x-0-x-0-x-0-x-0-x-0-x-0-x-0-x-0--x-x--4/6-6-6-6-6-6-0-0--|
PM_____________________________________

chorus
|----------------------------------------------------------------------------|
|----------------------------------------------------------------------------|
|----------------------------------------------------------------------------|
|-2-2-2-2-2-2-2-2-2-4-4-4-4-4-4-2-----------/8-8-8-8-8-8-8-8-8-4-4-4-4-4-4-2-|
|-2-2-2-2-2-2-2-2-2-4-4-4-4-4-4-2-----------/8-8-8-8-8-8-8-8-8-4-4-4-4-4-4-2-|
|-0-0-0-0-0-0-0-0-0-2-2-2-2-2-2-0-----------/6-6-6-6-6-6-6-6-6-2-2-2-2-2-2-0-|
PM_________________

play 2 times
|----------------------------------------------------------------|
|----------------------------------------------------------------|
|-2-------2-------2-------2-----------2---------------------0-0--|
|-2-x-2-x-2-x-2-x-2-x-2-x-2-x-2-x-2-x-2--x-x--6/8-8-8-8-8-8-0-0--|
|-2-x-2-x-2-x-2-x-2-x-2-x-2-x-2-x-2-x-2--x-x--6/8-8-8-8-8-8-0-0--|
|-0-x-0-x-0-x-0-x-0-x-0-x-0-x-0-x-0-x-0--x-x--4/6-6-6-6-6-6-0-0--|

verse 2 play 7 times
|----------------------------------------------------------------|
|----------------------------------------------------------------|
|-2-------2-------2-------2-----------2---------------------0-0--|
|-2-x-2-x-2-x-2-x-2-x-2-x-2-x-2-x-2-x-2--x-x--6/8-8-8-8-8-8-0-0--|
|-2-x-2-x-2-x-2-x-2-x-2-x-2-x-2-x-2-x-2--x-x--6/8-8-8-8-8-8-0-0--|
|-0-x-0-x-0-x-0-x-0-x-0-x-0-x-0-x-0-x-0--x-x--4/6-6-6-6-6-6-0-0--|
PM_____________________________________

chorus
|----------------------------------------------------------------------------|
|----------------------------------------------------------------------------|
|----------------------------------------------------------------------------|
|-2-2-2-2-2-2-2-2-2-4-4-4-4-4-4-2-----------/8-8-8-8-8-8-8-8-8-4-4-4-4-4-4-2-|
|-2-2-2-2-2-2-2-2-2-4-4-4-4-4-4-2-----------/8-8-8-8-8-8-8-8-8-4-4-4-4-4-4-2-|
|-0-0-0-0-0-0-0-0-0-2-2-2-2-2-2-0-----------/6-6-6-6-6-6-6-6-6-2-2-2-2-2-2-0-|
PM_________________

Outro play 5 times
|----------------------------------------------------------------|
|----------------------------------------------------------------|
|-2-------2-------2-------2-----------2---------------------0-0--|
|-2-x-2-x-2-x-2-x-2-x-2-x-2-x-2-x-2-x-2--x-x--6/8-8-8-8-8-8-0-0--|
|-2-x-2-x-2-x-2-x-2-x-2-x-2-x-2-x-2-x-2--x-x--6/8-8-8-8-8-8-0-0--|
|-0-x-0-x-0-x-0-x-0-x-0-x-0-x-0-x-0-x-0--x-x--4/6-6-6-6-6-6-0-0--|
PM_____________________________________

play 2 times
|-------------------------------|
|-------------------------------|
|--------------------------0-0--|
|-2-2-2-2-2-2-2-2-2--------0-0--|
|-2-2-2-2-2-2-2-2-2--------0-0--|
|-0-0-0-0-0-0-0-0-0--------0-0--|
PM_________________
Tap to rate this tab
# A B C D E F G H I J K L M N O P Q R S T U V W X Y Z