Song name
# A B C D E F G H I J K L M N O P Q R S T U V W X Y Z

Bad Dogs - Evil Pooh tab

intro
e----------------------------------------------|
B----------------------------------------------|
G----------------------------------------------|
D----------------------------------------------|
A-5--4--2--3--0--6--5--2--3---2--4--2--2--2--3-|
E-3--2--0--1--0--4--3--0--1---0--2--0--0--0--1-|

Verse play 3
e---------------------------------------------------|
B---------------------------------------------------|
G---------------------------------------------------|
D---------------------------------------------------|
A-5--4--2--3--x--0--6--5--2--3--x--2--4--2--2--2--3-|
E-3--2--0--1--x--0--4--3--0--1--x--0--2--0--0--0--1-|

Chorus 8
e---------------------------------|
B---------------------------------|
G---------------------------------|
D---------------------------------|
A-3-4-2-2-2-6--4--4-6-4-2-2-2-2-3-|
E-3-2-0-0-0-4--2--2-4-2-0-0-0-0-1-|

Verse 3
e---------------------------------------------------|
B---------------------------------------------------|
G---------------------------------------------------|
D---------------------------------------------------|
A-5--4--2--3--x--0--6--5--2--3--x--2--4--2--2--2--3-|
E-3--2--0--1--x--0--4--3--0--1--x--0--2--0--0--0--1-|

Chorus 8
e---------------------------------|
B---------------------------------|
G---------------------------------|
D---------------------------------|
A-3-4-2-2-2-6--4--4-6-4-2-2-2-2-3-|
E-3-2-0-0-0-4--2--2-4-2-0-0-0-0-1-|
Tap to rate this tab
# A B C D E F G H I J K L M N O P Q R S T U V W X Y Z