Song name
# A B C D E F G H I J K L M N O P Q R S T U V W X Y Z

Bad Dogs - Blurthy tab

riff 1 play 10 times
e|---------------------------------------|
B|---------------------------------------|
G|---------------------------------------|
D|---------------------------------------|
A|---------------------------------------|
E|-0-2-4-0-4-2-0-4-0-4-2-4-0-4-0-2-4-0-4-|

riff 2 play 7 times
e|-------------------------------------------------|
B|-------------------------------------------------|
G|-------------------------------------------------|
D|-------------------------------------------------|
A|-------------------------------------------------|
E|-0-2-0-4-0-4-0-2-0-4-0-4-0-2-0-4-0-4-0-2-0-4-0-4-|

riff 3 play 5 times
e|----------------------------------------------------------------------|
B|----------------------------------------------------------------------|
G|----------------------------------------------------------------------|
D|----------------------------------------------------------------------|
A|---2---4---0-----4--2---0---4---0-4---2---4---0---0---4---0---2---4---|
E|-0---2---4---0-4---2--0---4---0-----4---2---4---0---4---0---2---4---0-|

riff 1 play 10 times
e|---------------------------------------|
B|---------------------------------------|
G|---------------------------------------|
D|---------------------------------------|
A|---------------------------------------|
E|-0-2-4-0-4-2-0-4-0-4-2-4-0-4-0-2-4-0-4-|

riff 3 play 10 times
e|----------------------------------------------------------------------|
B|----------------------------------------------------------------------|
G|----------------------------------------------------------------------|
D|----------------------------------------------------------------------|
A|---2---4---0-----4--2---0---4---0-4---2---4---0---0---4---0---2---4---|
E|-0---2---4---0-4---2--0---4---0-----4---2---4---0---4---0---2---4---0-|
Tap to rate this tab
 
# A B C D E F G H I J K L M N O P Q R S T U V W X Y Z