Song name
# A B C D E F G H I J K L M N O P Q R S T U V W X Y Z

Bad Dogs - One Completely Naked Woman tab

	:Song List:
	 1.Lumber
	 2.Shee Deeder
	 3.Smells Of Cat Shit
	 4.Wolf
	 5.Him In Her
	 6.Horses
	 7.Blood On The Floor
	 8.Food
	 9.C-O-C-K
	10.Rider
	11.What did you say
	12.Nothing
	13.Blue Dinosaurs Have Control Over Planet Junikimo

Bad Dogs

One Completely Naked Woman

released (2002)
_____________________________________________________________________

		1.Lumber

Tuning - Drop-D

Intro
e------------------------------------|
B------------------------------------|
G----------------------------2-2-----|
D---2-0-0----0---0-0-0-0-2-2-2-2-----|
A-2-2-0-0----0-----0-0-0-2-2-0---0-0-|
E-2-2-0-0-1--0-----0-0-0-2-----------|

e------------------------------------|
B------------------------------------|
G----------------------------2-2-----|
D-2-2-0------0-----0-0-0-2-2-2-2-----|
A-2-2-0-0-0--0-----0-0-0-2-2-0-0-0-0-|
E-2---0-0-1--0-----0-0-0-2-------0-0-|

Verse play 5 times
e------------------------------------|
B------------------------------------|
G----------------------------2-2-----|
D-2-2-0-0-1--0-----0-0-0-2-2-2-2-0-0-|
A-2-2-0-0-1--0-0-0-0-0-0-2-2-0-0-0-0-|
E-2-2-0-0-1--0-----0-0-0-2-2-----0-0-|

Chorus play 2 times
e-------------------------------|
B-------------------------------|
G-6-6---------------------------|
D-6-6-4-----------2-2--0-0--1-1-|
A-4-4-4-----------2-2--0-0--1-1-|
E-----4-0-0-0-0-0-2-2--0-0--1-1-|

Verse play 5 times
e------------------------------------|
B------------------------------------|
G----------------------------2-2-----|
D-2-2-0-0-1--0-----0-0-0-2-2-2-2-0-0-|
A-2-2-0-0-1--0-0-0-0-0-0-2-2-0-0-0-0-|
E-2-2-0-0-1--0-----0-0-0-2-2-----0-0-|

Chorus play 4  times
e-------------------------------|
B-------------------------------|
G-6-6---------------------------|
D-6-6-4-----------2-2--0-0--1-1-|
A-4-4-4-----------2-2--0-0--1-1-|
E-----4-0-0-0-0-0-2-2--0-0--1-1-|

Solo
e--------------------------------------------------|
B--------------------------------------------------|
G--------------3-5-3-5-3-0-------------------------|
D--3-5-3-5-3-0-------------3-5-3-5-3-0-------------|
A--------------------------------------3-5-3-5-3-0-|
E--------------------------------------------------|

Chorus play 4 times
e-------------------------------|
B-------------------------------|
G-6-6---------------------------|
D-6-6-4-----------2-2--0-0--1-1-|
A-4-4-4-----------2-2--0-0--1-1-|
E-----4-0-0-0-0-0-2-2--0-0--1-1-|

Outro
e---------------------------|
B---------------------------|
G-6-6-----------------------|
D-6-6-4---------------------|
A-4-4-4---------------------|
E-----4-0-0-0-0-0-0-0-0---0-|

_____________________________________________________________________

		2.Shee Deeder
Normal Tuning

Intro
e---------------------------------------------------------|
B---------------------------------------------------------|
G---------------------------------------------------------|
D---------------------------------------------------------|
A---------------------------------------------------------|
E--0--0-3--0--0-5--0--0-3--0--0-5--0--0-7--0--0-3--0--0-7-|

e-----------------------------------------------------|
B-----------------------------------------------------|
G-----------------------------------------------------|
D-----------------------------------------------------|
A--0--0-3-0--0-5-0--0-3-0--0-5-0--0-7--0--0-3--0--0-7-|
E--0--0---0--0---0--0---0--0---0--0----0--0----0--0---|

Verse play 6 times
e-----------------------------------------------------|
B-----------------------------------------------------|
G-----------------------------------------------------|
D-----------------------------------------------------|
A--0--0-3-0--0-5-0--0-3-0--0-5-0--0-7--0--0-3--0--0-7-|
E--0--0---0--0---0--0---0--0---0--0----0--0----0--0---|

Chorus play 3 times
e----------------------------------------------------------|
B----------------------------------------------------------|
G----------------------------------------------------------|
D----------------------------------------7---------------7-|
A--0-2-2-3-0-2-2-5-0-2-2-3-0-2-2-5-0-2-2-7-0-2-2-3-0-2-2-7-|
E--0-0-0-1-0-0-0-3-0-0-0-1-0-0-0-3-0-0-0-5-0-0-0-1-0-0-0-5-|

Verse play 6 times
e-----------------------------------------------------|
B-----------------------------------------------------|
G-----------------------------------------------------|
D-----------------------------------------------------|
A--0--0-3-0--0-5-0--0-3-0--0-5-0--0-7--0--0-3--0--0-7-|
E--0--0---0--0---0--0---0--0---0--0----0--0----0--0---|

Chorus play 3 times
e----------------------------------------------------------|
B----------------------------------------------------------|
G----------------------------------------------------------|
D----------------------------------------7---------------7-|
A--0-2-2-3-0-2-2-5-0-2-2-3-0-2-2-5-0-2-2-7-0-2-2-3-0-2-2-7-|
E--0-0-0-1-0-0-0-3-0-0-0-1-0-0-0-3-0-0-0-5-0-0-0-1-0-0-0-5-|

e---------------------------------------------------------|
B---------------------------------------------------------|
G---------------------------------------------------------|
D---------------------------------------------------------|
A---------------------------------------------------------|
E--0--0-3--0--0-5--0--0-3--0--0-5--0--0-7--0--0-3--0--0-7-|

Chorus play 6 times
e----------------------------------------------------------|
B----------------------------------------------------------|
G----------------------------------------------------------|
D----------------------------------------7---------------7-|
A--0-2-2-3-0-2-2-5-0-2-2-3-0-2-2-5-0-2-2-7-0-2-2-3-0-2-2-7-|
E--0-0-0-1-0-0-0-3-0-0-0-1-0-0-0-3-0-0-0-5-0-0-0-1-0-0-0-5-|

Outro
e---------------------------------------------------------|
B---------------------------------------------------------|
G---------------------------------------------------------|
D---------------------------------------------------------|
A---------------------------------------------------------|
E--0--0-3--0--0-5--0--0-3--0--0-5--0--0-7--0--0-3--0--0-7-|

_____________________________________________________________________

		3.Smells Of Cat Shit

Normal Tuning

Intro
e-----------------------------------------------|
B-----------------------------------------------|
G-----------------------------------------------|
D-----------------------------------------------|
A-----------------------------------------------|
E-0-0--12-12--9-9--7--7--5--5--3--3--2--2--1--1-|

Verse play 1 time
e--------------------------------------------------|
B--------------------------------------------------|
G--------------------------------------------------|
D--------------------------------------------------|
A--------------------------------------------------|
E-0-0--12-12--9-9--7--7--5--5--3--3--2--2--1--1--0-|

Chorus play 2 times
e--------------------------------------------------|
B--------------------------------------------------|
G--------------------------------------------------|
D--------------------------------------------------|
A-0-0--12-12--9-9--7--7--5--5--3--3--2--2--1--1--0-|
E-0-0--12-12--9-9--7--7--5--5--3--3--2--2--1--1--0-|

____________________________________________________________________

		4.Wolf
Normal Tuning

Intro
e----------------------------------------|
B----------------------------------------|
G----------------------------------------|
D--5-5-x-0-5-x-5-5-5-x-0-5-5-x-5-x-5-5-5-|
A--5-5-x-0-5-x-5-5-5-x-0-5-5-x-5-x-5-5-5-|
E--5-5-x-0-5-x-5-5-5-x-0-5-5-x-5-x-5-5-5-|

Verse play 7 times
e----------------------------------------|
B----------------------------------------|
G----------------------------------------|
D--5-5-x-0-5-x-5-5-5-x-0-5-5-x-5-x-5-5-5-|
A--5-5-x-0-5-x-5-5-5-x-0-5-5-x-5-x-5-5-5-|
E--5-5-x-0-5-x-5-5-5-x-0-5-5-x-5-x-5-5-5-|

Chorus play 6 times
e--------------------------------------------------------|
B--------------------------------------------------------|
G----------------------0-5-5-x-5-x-5-5-5-0---------------|
D--5-5-x-0-5-x-5-5-5-x-0-5-5-x-5-x-5-5-5-0-5-5-x-5-5-5-x-|
A--5-5-x-0-5-x-5-5-5-x-0-5-5-x-5-x-5-5-5-0-5-5-x-5-5-5-x-|
E--5-5-x-0-5-x-5-5-5-x---------------------5-5-x-5-5-5-x-|

Verse play 7 times
e----------------------------------------|
B----------------------------------------|
G----------------------------------------|
D--5-5-x-0-5-x-5-5-5-x-0-5-5-x-5-x-5-5-5-|
A--5-5-x-0-5-x-5-5-5-x-0-5-5-x-5-x-5-5-5-|
E--5-5-x-0-5-x-5-5-5-x-0-5-5-x-5-x-5-5-5-|

Chorus play 6 times
e--------------------------------------------------------|
B--------------------------------------------------------|
G----------------------0-5-5-x-5-x-5-5-5-0---------------|
D--5-5-x-0-5-x-5-5-5-x-0-5-5-x-5-x-5-5-5-0-5-5-x-5-5-5-x-|
A--5-5-x-0-5-x-5-5-5-x-0-5-5-x-5-x-5-5-5-0-5-5-x-5-5-5-x-|
E--5-5-x-0-5-x-5-5-5-x---------------------5-5-x-5-5-5-x-|

Solo
e-------------------------4-------------9-9-|
G---------------9-9-x-x-4---------9-9-9-----|
B-9-9-x-4-9-9-9-------------4-6-4-----------|
D-------------------------------------------|
A-------------------------------------------|
E-------------------------------------------|

Verse play play 7 times
e----------------------------------------|
B----------------------------------------|
G----------------------------------------|
D--5-5-x-0-5-x-5-5-5-x-0-5-5-x-5-x-5-5-5-|
A--5-5-x-0-5-x-5-5-5-x-0-5-5-x-5-x-5-5-5-|
E--5-5-x-0-5-x-5-5-5-x-0-5-5-x-5-x-5-5-5-|

play 1 time
e--------------------------------------------------------|
B--------------------------------------------------------|
G----------------------0-5-5-x-5-x-5-5-5-0---------------|
D--5-5-x-0-5-x-5-5-5-x-0-5-5-x-5-x-5-5-5-0-5-5-x-5-5-5-x-|
A--5-5-x-0-5-x-5-5-5-x-0-5-5-x-5-x-5-5-5-0-5-5-x-5-5-5-x-|
E--5-5-x-0-5-x-5-5-5-x---------------------5-5-x-5-5-5-x-|

_____________________________________________________________________

		5.Him in Her

Normal Tuning

Intro
e-----------------------------|
B-----------------------------|
G-----------------------------|
D-2---4-4--3---2-2--4-4--3--2-|
A-2---4-4--3---2-2--4-4--3--2-|
E-0---2-2--1---0-0--2-2--1--0-|

Verse  play 3 times
e--------------------------------|
B--------------------------------|
G--------------------------------|
D-2--2---4-4-3---2--4-8-8-8-8--0-|
A-2--2---4-4-3---2--4-8-8-8-8--0-|
E-0--0---2-2-1---0--2-6-6-6-6--0-|

Chorus play 8 times
e------------------------------------|
B------------------------------------|
G------------------------------------|
D--2--2---4-4-3---2--4--4-8-8-8-8--0-|
A--2--2---4-4-3---2--4--4-8-8-8-8--0-|
E--0--0---2-2-1---0--2--2-6-6-6-6--0-|

Verse  play 3 times
e--------------------------------|
B--------------------------------|
G--------------------------------|
D-2--2---4-4-3---2--4-8-8-8-8--0-|
A-2--2---4-4-3---2--4-8-8-8-8--0-|
E-0--0---2-2-1---0--2-6-6-6-6--0-|

Chorus play 8 times
e------------------------------------|
B------------------------------------|
G------------------------------------|
D--2--2---4-4-3---2--4--4-8-8-8-8--0-|
A--2--2---4-4-3---2--4--4-8-8-8-8--0-|
E--0--0---2-2-1---0--2--2-6-6-6-6--0-|

Outro
e-------------------------------------------------|
B-------------------------------------------------|
G-------------------------------------------------|
D--2--2---4-4-3---2--4--4-8-8-8-8---0--0--4\3-----|
A--2--2---4-4-3---2--4--4-8-8-8-8---0--0--4\3--2--|
E--0--0---2-2-1---0--2--2-6-6-6-6---0--0--2\1--0--|

_____________________________________________________________________

		6.Horses

Tuning Drop-D

Intro
e----------------------------------------------------------------|
B----------------------------------------------------------------|
G----------------------------------------------------------------|
D---4----4-4--4-4--4---2---2--2-----4----4-4--4-4--4---0----0--0-|
A---4----4-4--4-4--4---2---2--2-----4----4-4--4-4--4---0----0--0-|
E---4----4-4--4-4--4---2---2--2-----4----4-4--4-4--4---0----0--0-|

Verse play 4 times
e--------------------------------------------------------------0---|
B--------------------------------------------------------------0-0-|
G---------------------------------------------------------0--0-0-0-|
D---4----4-4--4-4--4---2---2--2-----4----4-4--4-4--4---0--0--0-0-0-|
A---4----4-4--4-4--4---2---2--2-----4----4-4--4-4--4---0--0--0---0-|
E---4----4-4--4-4--4---2---2--2-----4----4-4--4-4--4---0--0--0-----|

Chorus play 4 times
e---------------------------------------------------------|
B---------------------------------------------------------|
G---------------------------------------------------------|
D--7---7---7--X-X--X-X-8---8----2---2---2--X-X--X-X-3---3-|
A--7---7---7--X-X--X-X-8---8----2---2---2--X-X--X-X-3---3-|
E--7---7---7--8-8--8-8-8---8----2---2---2--3-3--3-3-3---3-|

Verse play 4 times
e--------------------------------------------------------------0---|
B--------------------------------------------------------------0-0-|
G---------------------------------------------------------0--0-0-0-|
D---4----4-4--4-4--4---2---2--2-----4----4-4--4-4--4---0--0--0-0-0-|
A---4----4-4--4-4--4---2---2--2-----4----4-4--4-4--4---0--0--0---0-|
E---4----4-4--4-4--4---2---2--2-----4----4-4--4-4--4---0--0--0-----|

Chorus play 4 times
e---------------------------------------------------------|
B---------------------------------------------------------|
G---------------------------------------------------------|
D--7---7---7--X-X--X-X-8---8----2---2---2--X-X--X-X-3---3-|
A--7---7---7--X-X--X-X-8---8----2---2---2--X-X--X-X-3---3-|
E--7---7---7--8-8--8-8-8---8----2---2---2--3-3--3-3-3---3-|

Solo
e-------------------------------------------------------|
B-------------------------------------------------------|
G-9-9-9-8-6-----6---6-----7-7---4-------------9-9-9-8-6-|
D-----------7-7---7---4-6-----6---2-0-4-6-8-9-----------|
A-------------------------------------------------------|
E-------------------------------------------------------|

e----------------------------------------------------------|
B----------------------------------------------------------|
G----------------------------------------------------------|
D-11-11-13-13-15-14-14-13-12-11-11-12-12-11-11-13-13-14-14-|
A----------------------------------------------------------|
E----------------------------------------------------------|

Chorus play 4 times
e---------------------------------------------------------|
B---------------------------------------------------------|
G---------------------------------------------------------|
D--7---7---7--X-X--X-X-8---8----2---2---2--X-X--X-X-3---3-|
A--7---7---7--X-X--X-X-8---8----2---2---2--X-X--X-X-3---3-|
E--7---7---7--8-8--8-8-8---8----2---2---2--3-3--3-3-3---3-|

_____________________________________________________________________

		7.Blood On The Floor
Normal Tuning

Verse play 15 times
e--------------------------------|
B--------------------------------|
G--------------------------------|
D--3-2-x-0-x-4-3-2-x-0-4-0-x-2-3-|
A--3-2-x-0-x-4-3-2-x-0-4-0-x-2-3-|
E--1-0-x-0-x-2-1-0-x-0-2-0-x-0-1-|

Chorus play 15 times
e-------------------------|
B-------------------------|
G-------------------------|
D-2-4-4-x-3-2-2-x-4-4-3-2-|
A-2-4-4-x-3-2-2-x-4-4-3-2-|
E-0-2-2-x-1-0-0-x-2-2-1-0-|

Verse play 15 times
e-------------------------------|
B-------------------------------|
G-------------------------------|
D-3-2-x-0-x-4-3-2-x-0-4-0-x-2-3-|
A-3-2-x-0-x-4-3-2-x-0-4-0-x-2-3-|
E-1-0-x-0-x-2-1-0-x-0-2-0-x-0-1-|

Chorus play 15 times
e-------------------------|
B-------------------------|
G-------------------------|
D-2-4-4-x-3-2-2-x-4-4-3-2-|
A-2-4-4-x-3-2-2-x-4-4-3-2-|
E-0-2-2-x-1-0-0-x-2-2-1-0-|

Verse play 15 times
e-------------------------------|
B-------------------------------|
G-------------------------------|
D-3-2-x-0-x-4-3-2-x-0-4-0-x-2-3-|
A-3-2-x-0-x-4-3-2-x-0-4-0-x-2-3-|
E-1-0-x-0-x-2-1-0-x-0-2-0-x-0-1-|

Chorus play 15 times
e-------------------------|
B-------------------------|
G-------------------------|
D-2-4-4-x-3-2-2-x-4-4-3-2-|
A-2-4-4-x-3-2-2-x-4-4-3-2-|
E-0-2-2-x-1-0-0-x-2-2-1-0-|

Outro
e---------------------------------|
B---------------------------------|
G---------------------------------|
D-2-2-2-2-2-2-2-2-2-2-2-2-2-2-2-2-|
A-2-2-2-2-2-2-2-2-2-2-2-2-2-2-2-2-|
E-0-0-0-0-0-0-0-0-0-0-0-0-0-0-0-0-|
          ^       ^       ^       ^
          Pm      Pm      Pm      Pm

_____________________________________________________________________

		8.Food
Normal Tuning

Intro
e--------------------------------------------------------------|
B--------------------------------------------------------------|
G--------------------------------5-5--5-x-x-x------x-x-x-x-----|
D--7-7-------7-7--7-x-x-x-x-2--2-5-5--5-x-x-x--2-2-x-x-x-x-5-5-|
A--7-7-------7-7--7-x-x-x-x-2--2-3-3--3-x-x-x--2-2-x-x-x-x-5-5-|
E--5-5-------5-5--5-x-x-x-x-0--0--------x-x-x--0-0-x-x-x-x-3-3-|

Verse play 7 times
e---------------------------------------------------|
B---------------------------------------------------|
G---------------------5-5--5-x-x-x------x-x-x-x-----|
D-7-7--7-x-x-x-x-2--2-5-5--5-x-x-x--2-2-x-x-x-x-5-5-|
A-7-7--7-x-x-x-x-2--2-3-3--3-x-x-x--2-2-x-x-x-x-5-5-|
E-5-5--5-x-x-x-x-0--0--------x-x-x--0-0-x-x-x-x-3-3-|

Chorus play 5 times
e-----------------------------------------------------|
B-----------------------------------------------------|
G-------------------5-5-5-5-2-2--2-2-2-2-5-5--5-5-5-5-|
D-7-7--7-7-7-7-5-5--5-5-5-5-2-2--2-2-2-2-5-5--5-5-5-5-|
A-7-7--7-7-7-7-5-5--5-5-5-5-2-2--2-2-2-2-5-5--5-5-5-5-|
E-5-5--5-5-5-5-3-3--3-3-3-3-0-0--0-0-0-0-3-3--3-3-3-3-|

Verse play 9 times
e---------------------------------------------------|
B---------------------------------------------------|
G---------------------5-5--5-x-x-x------x-x-x-x-----|
D-7-7--7-x-x-x-x-2--2-5-5--5-x-x-x--2-2-x-x-x-x-5-5-|
A-7-7--7-x-x-x-x-2--2-3-3--3-x-x-x--2-2-x-x-x-x-5-5-|
E-5-5--5-x-x-x-x-0--0--------x-x-x--0-0-x-x-x-x-3-3-|

Chorus play 7 imes
e-----------------------------------------------------|
B-----------------------------------------------------|
G-------------------5-5-5-5-2-2--2-2-2-2-5-5--5-5-5-5-|
D-7-7--7-7-7-7-5-5--5-5-5-5-2-2--2-2-2-2-5-5--5-5-5-5-|
A-7-7--7-7-7-7-5-5--5-5-5-5-2-2--2-2-2-2-5-5--5-5-5-5-|
E-5-5--5-5-5-5-3-3--3-3-3-3-0-0--0-0-0-0-3-3--3-3-3-3-|

Outro
e------------------------|
B------------------------|
G------------------------|
D-7-7--7-x-x-x-x-2-----2-|
A-7-7--7-x-x-x-x-2-----2-|
E-5-5--5-x-x-x-x-0-----0-|

_____________________________________________________________________

		9.C-O-C-K

Tuning Drop-D

Intro
e------------------------------------------------|
B------------------------------------------------|
G------------------------------------------------|
D-3---3---3---3---5-6-6--5-6-6-----X-X--X-X-X--X-|
A-3---3---3---3---5-6-6--5-6-6-----X-X--X-X-X--X-|
E-3---3---3---3---5-6-6--5-6-6-----X-X--X-X-X--X-|

Verse play 6 times
e-------------------------------------------------|
B-------------------------------------------------|
G-------------------------------------------------|
D-3--3--3-x-x-x--5-6-6--5-6-6--1-1--X-X--X-X-X--X-|
A-3--3--3-x-x-x--5-6-6--5-6-6--1-1--X-X--X-X-X--X-|
D-3--3--3-x-x-x--5-6-6--5-6-6--1-1--X-X--X-X-X--X-|

Chorus play 9 times
e------------------------------------------------|
B------------------------------------------------|
G------------------------------------------------|
D-3---3---3---3---5-6-6--5-6-6-----X-X--X-X-X--X-|
A-3---3---3---3---5-6-6--5-6-6-----X-X--X-X-X--X-|
E-3---3---3---3---5-6-6--5-6-6-----X-X--X-X-X--X-|


Verse play 7 times
e-------------------------------------------------|
B-------------------------------------------------|
G-------------------------------------------------|
D-3--3--3-x-x-x--5-6-6--5-6-6--1-1--X-X--X-X-X--X-|
A-3--3--3-x-x-x--5-6-6--5-6-6--1-1--X-X--X-X-X--X-|
D-3--3--3-x-x-x--5-6-6--5-6-6--1-1--X-X--X-X-X--X-|

Chorus play 9 times
e------------------------------------------------|
B------------------------------------------------|
G------------------------------------------------|
D-3---3---3---3---5-6-6--5-6-6-----X-X--X-X-X--X-|
A-3---3---3---3---5-6-6--5-6-6-----X-X--X-X-X--X-|
E-3---3---3---3---5-6-6--5-6-6-----X-X--X-X-X--X-|

Solo
e----------------------------------------------------------------|
B----------------------------------------------------------------|
G-----------------------------------9-9-9-11-9-13-11-9-----------|
D---------------------6-8-8-8-9-9-9--------------------9-9-9-8-6-|
A---------4-4-4-7-7-7--------------------------------------------|
E-4-7-7-7--------------------------------------------------------|

Chorus play 9 times
e------------------------------------------------|
B------------------------------------------------|
G------------------------------------------------|
D-3---3---3---3---5-6-6--5-6-6-----X-X--X-X-X--X-|
A-3---3---3---3---5-6-6--5-6-6-----X-X--X-X-X--X-|
E-3---3---3---3---5-6-6--5-6-6-----X-X--X-X-X--X-|


Outro
e---------------------------------------|
B---------------------------------------|
G-7-7-7-4-------------------------------|
D---------7-7-7-4-4---------------------|
A-------------------7-7-7-4-4-4---------|
E-------------------------------4-4-4-4-|

_____________________________________________________________________

		10.Rider
Normal Tuning

Intro
e-------------------------------------------------------|
B-------------------------------------------------------|
G-7-7-7-7-7-7-7-7-7-7-7-----------7-7-7-7-7-7-----------|
D-7-7-7-7-7-7-7-7-7-7-7-9-9-9-9-9-7-7-7-7-7-7-9-9-9-9-9-|
A-5-5-5-5-5-5-5-5-5-5-5-9-9-9-9-9-5-5-5-5-5-5-9-9-9-9-9-|
E-----------------------7-7-7-7-7-------------7-7-7-7-7-|

Verse play 4 times
e-----------------------------------------------------------------|
B-----------------------------------------------------------------|
G-7-7-7-7-7-7-----------7-7-7-7-7-----------7-7-7-7-7-7-----------|
D-7-7-7-7-7-7-9-9-9-9-9-7-7-7-7-7-9-9-9-9-9-7-7-7-7-7-7-9-9-9-9-9-|
A-5-5-5-5-5-5-9-9-9-9-9-5-5-5-5-5-9-9-9-9-9-5-5-5-5-5-5-9-9-9-9-9-|
E-------------7-7-7-7-7-----------7-7-7-7-7-------------7-7-7-7-7-|

Chorus play 7 times
e--------------------------------------|
B--------------------------------------|
G-7-7-7-----------5-5-5-10-10----------|
D-7-7-7-9-9-9-9-9-5-5-5-10-10-10-10-10-|
A-5-5-5-9-9-9-9-9-3-3-3--8--8-10-10-10-|
E-------7-7-7-7-7-------------8--8--8--|

Verse play 4 times
e-----------------------------------------------------------------|
B-----------------------------------------------------------------|
G-7-7-7-7-7-7-----------7-7-7-7-7-----------7-7-7-7-7-7-----------|
D-7-7-7-7-7-7-9-9-9-9-9-7-7-7-7-7-9-9-9-9-9-7-7-7-7-7-7-9-9-9-9-9-|
A-5-5-5-5-5-5-9-9-9-9-9-5-5-5-5-5-9-9-9-9-9-5-5-5-5-5-5-9-9-9-9-9-|
E-------------7-7-7-7-7-----------7-7-7-7-7-------------7-7-7-7-7-|

Chorus play 7 times
e--------------------------------------|
B--------------------------------------|
G-7-7-7-----------5-5-5-10-10----------|
D-7-7-7-9-9-9-9-9-5-5-5-10-10-10-10-10-|
A-5-5-5-9-9-9-9-9-3-3-3--8--8-10-10-10-|
E-------7-7-7-7-7-------------8--8--8--|

______________________________________________________________________

		11.What Did You Say
Normal Tuning

Intro
e----------------------------------------|
B----------------------------------------|
G----------------------------------------|
D----------------------------------------|
A-7-7-7-7-7-x--3-3-3-3-3-x--5-5-5-5-5-x--|
E----------------------------------------|

Verse play 10 times
e----------------------------------------|
B----------------------------------------|
G----------------------------------------|
D----------------------------------------|
A-7-7-7-7-7-x--3-3-3-3-3-x--5-5-5-5-5-x--|
E----------------------------------------|

Chorus play 2 times
e----------------------------------------------------|
B----------------------------------------------------|
G-9-9-9-9-9----5-5-5-5-5----7-7-7-7-7----------------|
D-9-9-9-9-9-x--5-5-5-5-5-x--7-7-7-7-7-x--9-9-9-9-9-x-|
A-7-7-7-7-7-x--3-3-3-3-3-x--5-5-5-5-5-x--9-9-9-9-9-x-|
E----------------------------------------7-7-7-7-7---|

Verse play 10 times
e----------------------------------------|
B----------------------------------------|
G----------------------------------------|
D----------------------------------------|
A-7-7-7-7-7-x--3-3-3-3-3-x--5-5-5-5-5-x--|
E----------------------------------------|

Chorus play 2 times
e----------------------------------------------------|
B----------------------------------------------------|
G-9-9-9-9-9----5-5-5-5-5----7-7-7-7-7----------------|
D-9-9-9-9-9-x--5-5-5-5-5-x--7-7-7-7-7-x--9-9-9-9-9-x-|
A-7-7-7-7-7-x--3-3-3-3-3-x--5-5-5-5-5-x--9-9-9-9-9-x-|
E----------------------------------------7-7-7-7-7---|

Outro
e----------------------------------------------------|
B----------------------------------------------------|
G----------------------------------------------------|
D----------------------------------------------------|
A------------------------------4-5--7-7-7-x-4-2-2--5-|
E--5-5-5-x--2--0-0-0--x-3---0------------------------|


_____________________________________________________________________

		12.Nothing

e-----------------------------------------------|
B-----------------------------------------------|
G-----------------------------------------------|
D-7-7-7---3-3-3-3---x-x-x-x---3-3-3-3---x-x-x-x-|
A-5-5-5---1-1-1-1---x-x-x-x---3-3-3-3---x-x-x-x-|
E-x-x-x---x-x-x-x---4-4-4-4---x-x-x-x---3-3-3-3-|

Verse\Chorus play 11 times
e----------------------------|
B----------------------------|
G----------------------------|
D---------x----------x-x-----|
A--7-7-7--x--4--4-4--x-x--6--|
E--5-5-5--5--2--2-2--3-3--4--|

e----------------------------|
B----------------------------|
G----------------------------|
D----------------------------|
A----------------------------|
E--5-5-5--x--2--2-2--x-x--4--|

Verse\Chorus play 11 times
e----------------------------|
B----------------------------|
G----------------------------|
D---------x----------x-x-----|
A--7-7-7--x--4--4-4--x-x--6--|
E--5-5-5--5--2--2-2--3-3--4--|

____________________________________________________________________

		13.Blue Dinosaurs Have Control Over Pkanet Junikimo

Normal Tuning

Intro
e----------------------------0----------|
B----------------------------0----------|
G---------3---0-----------5--0----------|
D-----3---3---0--x-x-5----5--0-----3--0-|
A-----3---3---0--x-x-5-5--5--0--3--3--0-|
E-0-0-1-0-1-1----x-x---3--3--0--1--1----|

Verse play 15 times
e---------------------------0---------|
B---------------------------0---------|
G---------------------------0-------0-|
D-----3---3---0--x-x-5-5--5-0-0--3--0-|
A-----3---3---0--x-x-5-5--5---0--3--0-|
E-0-0-1-0-1-1-0--x-x---3--3---0--1----|

Chorus play 10 times
e----------0--------------------0-------------------|
B----------0--------------------0--5----------------|
G----------0---2----------3-----0--5--5-x-x-------3-|
D--5-x-----0---2--x-x--0--3--3--0--5--5-x-x-------3-|
A--5----5--0---2--x-x--0--3--3-----3--3-x-x-------3-|
E--3----3--0---0--x-x--0--1--1--------------0-0-0-1-|

Verse play 15 times
e---------------------------0---------|
B---------------------------0---------|
G---------------------------0-------0-|
D-----3---3---0--x-x-5-5--5-0-0--3--0-|
A-----3---3---0--x-x-5-5--5---0--3--0-|
E-0-0-1-0-1-1-0--x-x---3--3---0--1----|

Chorus play 10 times
e----------0--------------------0-------------------|
B----------0--------------------0--5----------------|
G----------0---2----------3-----0--5--5-x-x-------3-|
D--5-x-----0---2--x-x--0--3--3--0--5--5-x-x-------3-|
A--5----5--0---2--x-x--0--3--3-----3--3-x-x-------3-|
E--3----3--0---0--x-x--0--1--1--------------0-0-0-1-|

Solo 3 times
e-----7-7-8---5-3-----------6-9-----------------|
B-6-7-------9-----3-5---5-6-----7-9-9--7-7-9-9--|
G-----------------------------------------------|
D-----------------------------------------------|
A-----------------------------------------------|
E-----------------------------------------------|

Verse play 15 times
e---------------------------0---------|
B---------------------------0---------|
G---------------------------0-------0-|
D-----3---3---0--x-x-5-5--5-0-0--3--0-|
A-----3---3---0--x-x-5-5--5---0--3--0-|
E-0-0-1-0-1-1-0--x-x---3--3---0--1----|

Chorus play 10 times
e----------0--------------------0-------------------|
B----------0--------------------0--5----------------|
G----------0---2----------3-----0--5--5-x-x-------3-|
D--5-x-----0---2--x-x--0--3--3--0--5--5-x-x-------3-|
A--5----5--0---2--x-x--0--3--3-----3--3-x-x-------3-|
E--3----3--0---0--x-x--0--1--1--------------0-0-0-1-|

Outro
e------------------------------------------0--0--0--0--0--0--0--0--0--0--0-|
B------------------------------------------0--0--0--0--0--0--0--0--0--0--0-|
G------------------------------------------0--0--0--0--0--0--0--0--0--0--0-|
D-----3---3---0--x-x-5---5----5------------0--0--0--0--0--0--0--0--0--0--0-|
A-----3---3---0--x-x-5---5----5------------0--0--0--0--0--0--0--0--0--0--0-|
E-0-0-1-1-1---0--x-x-3---3----3------------0--0--0--0--0--0--0--0--0--0--0-|
Tap to rate this tab
# A B C D E F G H I J K L M N O P Q R S T U V W X Y Z