Song name
# A B C D E F G H I J K L M N O P Q R S T U V W X Y Z

Bad Dogs - Shee Deeder tab

Shee Deeder

Intro
e---------------------------------------------------------|
B---------------------------------------------------------|
G---------------------------------------------------------|
D---------------------------------------------------------|
A---------------------------------------------------------|
E--0--0-3--0--0-5--0--0-3--0--0-5--0--0-7--0--0-3--0--0-7-|

e-----------------------------------------------------|
B-----------------------------------------------------|
G-----------------------------------------------------|
D-----------------------------------------------------|
A--0--0-3-0--0-5-0--0-3-0--0-5-0--0-7--0--0-3--0--0-7-|
E--0--0---0--0---0--0---0--0---0--0----0--0----0--0---|

Verse play 6 times
e-----------------------------------------------------|
B-----------------------------------------------------|
G-----------------------------------------------------|
D-----------------------------------------------------|
A--0--0-3-0--0-5-0--0-3-0--0-5-0--0-7--0--0-3--0--0-7-|
E--0--0---0--0---0--0---0--0---0--0----0--0----0--0---|

Chorus play 3 times
e----------------------------------------------------------|
B----------------------------------------------------------|
G----------------------------------------------------------|
D----------------------------------------7---------------7-|
A--0-2-2-3-0-2-2-5-0-2-2-3-0-2-2-5-0-2-2-7-0-2-2-3-0-2-2-7-|
E--0-0-0-1-0-0-0-3-0-0-0-1-0-0-0-3-0-0-0-5-0-0-0-1-0-0-0-5-|

Verse play 6 times
e-----------------------------------------------------|
B-----------------------------------------------------|
G-----------------------------------------------------|
D-----------------------------------------------------|
A--0--0-3-0--0-5-0--0-3-0--0-5-0--0-7--0--0-3--0--0-7-|
E--0--0---0--0---0--0---0--0---0--0----0--0----0--0---|

Chorus play 3 times
e----------------------------------------------------------|
B----------------------------------------------------------|
G----------------------------------------------------------|
D----------------------------------------7---------------7-|
A--0-2-2-3-0-2-2-5-0-2-2-3-0-2-2-5-0-2-2-7-0-2-2-3-0-2-2-7-|
E--0-0-0-1-0-0-0-3-0-0-0-1-0-0-0-3-0-0-0-5-0-0-0-1-0-0-0-5-|

e---------------------------------------------------------|
B---------------------------------------------------------|
G---------------------------------------------------------|
D---------------------------------------------------------|
A---------------------------------------------------------|
E--0--0-3--0--0-5--0--0-3--0--0-5--0--0-7--0--0-3--0--0-7-|

Chorus play 6 times
e----------------------------------------------------------|
B----------------------------------------------------------|
G----------------------------------------------------------|
D----------------------------------------7---------------7-|
A--0-2-2-3-0-2-2-5-0-2-2-3-0-2-2-5-0-2-2-7-0-2-2-3-0-2-2-7-|
E--0-0-0-1-0-0-0-3-0-0-0-1-0-0-0-3-0-0-0-5-0-0-0-1-0-0-0-5-|

Outro
e---------------------------------------------------------|
B---------------------------------------------------------|
G---------------------------------------------------------|
D---------------------------------------------------------|
A---------------------------------------------------------|
E--0--0-3--0--0-5--0--0-3--0--0-5--0--0-7--0--0-3--0--0-7-|
Tap to rate this tab
# A B C D E F G H I J K L M N O P Q R S T U V W X Y Z