Song name
# A B C D E F G H I J K L M N O P Q R S T U V W X Y Z

Bad Dogs - Rider tab

Bad Dogs
Rider
Normal Tuning
Intro
e-------------------------------------------------------|
B-------------------------------------------------------|
G-7-7-7-7-7-7-7-7-7-7-7-----------7-7-7-7-7-7-----------|
D-7-7-7-7-7-7-7-7-7-7-7-9-9-9-9-9-7-7-7-7-7-7-9-9-9-9-9-|
A-5-5-5-5-5-5-5-5-5-5-5-9-9-9-9-9-5-5-5-5-5-5-9-9-9-9-9-|
E-----------------------7-7-7-7-7-------------7-7-7-7-7-|

Verse play 4 times
e-----------------------------------------------------------------|
B-----------------------------------------------------------------|
G-7-7-7-7-7-7-----------7-7-7-7-7-----------7-7-7-7-7-7-----------|
D-7-7-7-7-7-7-9-9-9-9-9-7-7-7-7-7-9-9-9-9-9-7-7-7-7-7-7-9-9-9-9-9-|
A-5-5-5-5-5-5-9-9-9-9-9-5-5-5-5-5-9-9-9-9-9-5-5-5-5-5-5-9-9-9-9-9-|
E-------------7-7-7-7-7-----------7-7-7-7-7-------------7-7-7-7-7-|

Chorus play 7 times
e--------------------------------------|
B--------------------------------------|
G-7-7-7-----------5-5-5-10-10----------|
D-7-7-7-9-9-9-9-9-5-5-5-10-10-10-10-10-|
A-5-5-5-9-9-9-9-9-3-3-3--8--8-10-10-10-|
E-------7-7-7-7-7-------------8--8--8--|

Verse play 4 times
e-----------------------------------------------------------------|
B-----------------------------------------------------------------|
G-7-7-7-7-7-7-----------7-7-7-7-7-----------7-7-7-7-7-7-----------|
D-7-7-7-7-7-7-9-9-9-9-9-7-7-7-7-7-9-9-9-9-9-7-7-7-7-7-7-9-9-9-9-9-|
A-5-5-5-5-5-5-9-9-9-9-9-5-5-5-5-5-9-9-9-9-9-5-5-5-5-5-5-9-9-9-9-9-|
E-------------7-7-7-7-7-----------7-7-7-7-7-------------7-7-7-7-7-|

Chorus play 7 times
e--------------------------------------|
B--------------------------------------|
G-7-7-7-----------5-5-5-10-10----------|
D-7-7-7-9-9-9-9-9-5-5-5-10-10-10-10-10-|
A-5-5-5-9-9-9-9-9-3-3-3--8--8-10-10-10-|
E-------7-7-7-7-7-------------8--8--8--|
Tap to rate this tab
 
# A B C D E F G H I J K L M N O P Q R S T U V W X Y Z