Song name
# A B C D E F G H I J K L M N O P Q R S T U V W X Y Z

Bad Dogs - Anus Mouth tab

Intro
e-------------------------------------------------------|
B-------------------------------------------------------|
G-------------------------------------------------------|
D-------------------------------------------------------|
A-------------------------------------------------------|
E--0-0--7--7--3-5-3-5--0----0-0--7--7--3-5-3-5--3-5-3-5-|

Verse
e---------------------------------------------------------|
B---------------------------------------------------------|
G---------------------------------------------------------|
D---------------------------------------------------------|
A---------------------------------------3-5-3-5-0-3-5-3-5-|
E--0-0-0--7-7-7--3-5-3-5--0-0-0--7-7-7--------------------|

Pre-Chorus
e--------------------------------------------------------|
B--------------------------------------------------------|
G--------------------------------------------------------|
D--0------7------3-5-3-5--0------7-----3-5-3-5-0-3-5-3-5-|
A--0------7------3-5-3-5--0------7-----3-5-3-5-0-3-5-3-5-|
E--0------7------3-5-3-5--0------7-----3-5-3-5-0-3-5-3-5-|

Chorus
e--------------------------------------------------------|
B--------------------------------------------------------|
G--------------------------------------3-5-3-5-0-3-5-3-5-|
D--0------7------3-5-3-5--0------7-----3-5-3-5-0-3-5-3-5-|
A--0------7------3-5-3-5--0------7-----3-5-3-5-0-3-5-3-5-|
E--0------7------3-5-3-5--0------7-----------------------|

Verse
e---------------------------------------------------------|
B---------------------------------------------------------|
G---------------------------------------------------------|
D---------------------------------------------------------|
A---------------------------------------3-5-3-5-0-3-5-3-5-|
E--0-0-0--7-7-7--3-5-3-5--0-0-0--7-7-7--------------------|

Pre-Chorus
e--------------------------------------------------------|
B--------------------------------------------------------|
G--------------------------------------------------------|
D--0------7------3-5-3-5--0------7-----3-5-3-5-0-3-5-3-5-|
A--0------7------3-5-3-5--0------7-----3-5-3-5-0-3-5-3-5-|
E--0------7------3-5-3-5--0------7-----3-5-3-5-0-3-5-3-5-|

Chorus
e--------------------------------------------------------|
B--------------------------------------------------------|
G--------------------------------------3-5-3-5-0-3-5-3-5-|
D--0------7------3-5-3-5--0------7-----3-5-3-5-0-3-5-3-5-|
A--0------7------3-5-3-5--0------7-----------------------|
E--0------7------3-5-3-5--0------7-----------------------|

Outro
e--------------------------------------|
B--3-5-3-5-0-3-5-3-5-------------------|
G--------------------3-5-3-5-0-3-5-3-5-|
D--------------------------------------|
A--------------------------------------|
E--------------------------------------|
Tap to rate this tab
# A B C D E F G H I J K L M N O P Q R S T U V W X Y Z