Song name
# A B C D E F G H I J K L M N O P Q R S T U V W X Y Z

Bad Dogs - Twing N Berries tab

Twing N Berries

Intro x2
||-------------------------------||
||-------------------------------||
||-------------------------------||
||-5---5---5---5---7---7---------||
||-5---5---5---5---7---7-(pause)-||
||-5---5---5---5---7---7---------||

Verse1 x8
||--------------------------------------------||
||--------------------------------------------||
||--------------------------------------------||
||-5---5---5---5---7---7---5---5---5---7---7--||
||-5---5---5---5---7---7---5---5---5---7---7--||
||-5---5---5---5---7---7---5---5---5---7---7--||

Chorus x8
||-----------------------------------------------||
||-----------------------------------------------||
||-----------------------------------------------||
||-7---7---7---7---9---9---7---7---7---9---9---9-||
||-7---7---7---7---9---9---7---7---7---9---9---9-||
||-7---7---7---7---9---9---7---7---7---9---9---9-||

Verse2 x8
||--------------------------------------------||
||--------------------------------------------||
||--------------------------------------------||
||-5---5---5---5---7---7---5---5---5---7---7--||
||-5---5---5---5---7---7---5---5---5---7---7--||
||-5---5---5---5---7---7---5---5---5---7---7--||

Chorus x8
||-----------------------------------------------||
||-----------------------------------------------||
||-----------------------------------------------||
||-7---7---7---7---9---9---7---7---7---9---9---9-||
||-7---7---7---7---9---9---7---7---7---9---9---9-||
||-7---7---7---7---9---9---7---7---7---9---9---9-||

Verse3 x8
||--------------------------------------------||
||--------------------------------------------||
||--------------------------------------------||
||-5---5---5---5---7---7---5---5---5---7---7--||
||-5---5---5---5---7---7---5---5---5---7---7--||
||-5---5---5---5---7---7---5---5---5---7---7--||

Chorus x8
||-----------------------------------------------||
||-----------------------------------------------||
||-----------------------------------------------||
||-7---7---7---7---9---9---7---7---7---9---9---9-||
||-7---7---7---7---9---9---7---7---7---9---9---9-||
||-7---7---7---7---9---9---7---7---7---9---9---9-||

Verse4 x8
||--------------------------------------------||
||--------------------------------------------||
||--------------------------------------------||
||-5---5---5---5---7---7---5---5---5---7---7--||
||-5---5---5---5---7---7---5---5---5---7---7--||
||-5---5---5---5---7---7---5---5---5---7---7--||

Chorus x8
||-----------------------------------------------||
||-----------------------------------------------||
||-----------------------------------------------||
||-7---7---7---7---9---9---7---7---7---9---9---9-||
||-7---7---7---7---9---9---7---7---7---9---9---9-||
||-7---7---7---7---9---9---7---7---7---9---9---9-||

Outro x2
||-----------------------------------------------||
||-----------------------------------------------||
||-----------------------------------------------||
||-5---5---7---7---9---9---5---5---7---7---9---9-||
||-5---5---7---7---9---9---5---5---7---7---9---9-||
||-5---5---7---7---9---9---5---5---7---7---9---9-||

Tap to rate this tab
# A B C D E F G H I J K L M N O P Q R S T U V W X Y Z