Song name
# A B C D E F G H I J K L M N O P Q R S T U V W X Y Z

Bad Dogs - Vagina Gun tab

Intro
|-----------------------------------------------|
|-----------------------------------------x-x-x-|
|-----------------------------------------x-x-x-|
|-----------------------------------------x-x-x-|
|-3-3-3-3-3-3-3-3-3-3-5-5-5-5-5-5-5-5-5-5-x-x-x-|
|-1---------1-1-------3---------3-3-------x-x-x-|

Verse
|------------------------------------------------------|
|-----------------------------------------x-x-x-x-x-x--|
|-----------------------------------------x-x-x-x-x-x--|
|---3-3-3-3-----3-3-3---5-5-5-5-----5-5-5-x-x-x-x-x-x--|
|-3-3-3-3-3-3-3-3-3-3-5-5-5-5-5-5-5-5-5-5-x-x-x-x-x-x--|
|-1---------1-1-------3---------3-3-------x-x-x-x-x-x--|

chorus
|-----------------------------------------------------|
|-----------------------------------------x-x-x-x-x-x-|
|---3-3-3-3-----3-3-3---5-5-5-5-----5-5-5-x-x-x-x-x-x-|
|-3-3-3-3-3-3-3-3-3-3-5-5-5-5-5-5-5-5-5-5-x-x-x-x-x-x-|
|-3-3-3-3-3-3-3-3-3-3-5-5-5-5-5-5-5-5-5-5-x-x-x-x-x-x-|
|-1---------1-1-------3---------3-3-------x-x-x-x-x-x-|


Verse
|------------------------------------------------------|
|-----------------------------------------x-x-x-x-x-x--|
|-----------------------------------------x-x-x-x-x-x--|
|---3-3-3-3-----3-3-3---5-5-5-5-----5-5-5-x-x-x-x-x-x--|
|-3-3-3-3-3-3-3-3-3-3-5-5-5-5-5-5-5-5-5-5-x-x-x-x-x-x--|
|-1---------1-1-------3---------3-3-------x-x-x-x-x-x--|

chorus
|-----------------------------------------------------|
|-----------------------------------------x-x-x-x-x-x-|
|---3-3-3-3-----3-3-3---5-5-5-5-----5-5-5-x-x-x-x-x-x-|
|-3-3-3-3-3-3-3-3-3-3-5-5-5-5-5-5-5-5-5-5-x-x-x-x-x-x-|
|-3-3-3-3-3-3-3-3-3-3-5-5-5-5-5-5-5-5-5-5-x-x-x-x-x-x-|
|-1---------1-1-------3---------3-3-------x-x-x-x-x-x-|

There isn't really a guitar solo here it just sounds like a lot of gun fire while the 
riff is repeated

Verse
|------------------------------------------------------|
|-----------------------------------------x-x-x-x-x-x--|
|-----------------------------------------x-x-x-x-x-x--|
|---3-3-3-3-----3-3-3---5-5-5-5-----5-5-5-x-x-x-x-x-x--|
|-3-3-3-3-3-3-3-3-3-3-5-5-5-5-5-5-5-5-5-5-x-x-x-x-x-x--|
|-1---------1-1-------3---------3-3-------x-x-x-x-x-x--|

chorus
|-----------------------------------------------------|
|-----------------------------------------x-x-x-x-x-x-|
|---3-3-3-3-----3-3-3---5-5-5-5-----5-5-5-x-x-x-x-x-x-|
|-3-3-3-3-3-3-3-3-3-3-5-5-5-5-5-5-5-5-5-5-x-x-x-x-x-x-|
|-3-3-3-3-3-3-3-3-3-3-5-5-5-5-5-5-5-5-5-5-x-x-x-x-x-x-|
|-1---------1-1-------3---------3-3-------x-x-x-x-x-x-|

Outro
|-----------------------------------------|
|-----------------------------------------|
|-----------------------------------------|
|---3-3-3-3-----5-5-5-5-------------------|
|-3-3-3-3-3-3-3-5-5-5-5-3-3-5-5-5-5-5-5-5-|
|-1---------1-1---------1-1---------------|
Tap to rate this tab
 
# A B C D E F G H I J K L M N O P Q R S T U V W X Y Z