Song name
# A B C D E F G H I J K L M N O P Q R S T U V W X Y Z

Bad Influence - Snooper Four tab

this is the rythem guitarist's solo.

trem. picking
---------------------------------------------------------------------------|
---------------------------------------------------------------------------|
11b------16-11-11-11-11-11-14-11-11-11-14-11-11-11-11-11-16-11-11-11-11-11-|
---------------------------------------------------------------------------|
---------------------------------------------------------------------------|
---------------------------------------------------------------------------|

---------------------------------------------------------------------------|
---------------------------------15-----15-----15-----15-------------------|
14-11-11-11-14-11-11-11-11-11----14b16--14b16--14b16----14b15-----14-14-14-|
---------------------------------------------------------------------------|
---------------------------------------------------------------------------|
---------------------------------------------------------------------------|

----------------------------------------------------------------14-14-14-14-|
----------------------------14-14-14-14-15-15-15-15-17-17-17-17-------------|
14-15-15-15-15-17-17-17-17--------------------------------------------------|
----------------------------------------------------------------------------|
----------------------------------------------------------------------------|
----------------------------------------------------------------------------|

15-15-15-15-17-17-17-17--17-15-14-17-15-14-17-15-14-17-17-17-17-17-15-14-17-|
----------------------------------------------------------------------------|
----------------------------------------------------------------------------|
----------------------------------------------------------------------------|
----------------------------------------------------------------------------|
----------------------------------------------------------------------------|

---------------------------------------------------------------------------|
15-----15-----15-----15----------------------------------------------------|
14b16--14b16--14b16--14b16-------------------------------------------------|
---------------------------------------------------------------------------|
---------------------------------------------------------------------------|
---------------------------------------------------------------------------|
Tap to rate this tab
# A B C D E F G H I J K L M N O P Q R S T U V W X Y Z