Song name
# A B C D E F G H I J K L M N O P Q R S T U V W X Y Z

Bad Religion - Sorrrow Acoustic tab

SOLO
----7-5--------------------------------------------------------------------|
--------8/7-5-----7--------------------------------------------------------|
--------------7/9-----9-7h9-7-------7-7------9b--7---------7---------------|
------------------------------9-7h9----------------9--7h9----9-7-----------|
-----------------------------------------------------------------9-7-------|
---------------------------------------------------------------------------|

--------------------------------------------------------------------------------|
-------------------------------------------------7-8-7--------------------------|
---------------------------------------------/9--------9-7-9p7-------7-----6h7--|
--------------------7---9/7------------------------------------9-7h9------------|
---------7--8--9------9-----9-7---9-7-------------------------------------------|
---7--10-----------------------------10-7---------------------------------------|
Tap to rate this tab
# A B C D E F G H I J K L M N O P Q R S T U V W X Y Z