Guitaretab - guitar tabs
Song name
# A B C D E F G H I J K L M N O P Q R S T U V W X Y Z

Bad Religion - Infected tab

Bad Religion- Infected

Tuning: Dropped D (D,A,D,G,B,e)

Key:

b= bend
v=vibrato
r=let ring

Pre-Intro: Lead Guitar

e-----------------------------------------------|
B-----------------------------------------------|
G-0r---------0r-----------0r--------------------|
D-----------------------------------------------|
A-----------------------------------------------|
E-----------------------------------------------|


Intro:

Rythm Guitar:
e----------------------------------------------------------------------------|
B----------------------------------------------------------------------------|
G------------------3-3-3-5-5-5-----------------------------------------------|
D------------------3-3-3-5-5-5-----------------------------------------------|
A--5-5-5---1-1-1-0-1-1-1-3-3-3-----------------------------------------------|
E--5-5-5-0-1-1-1-------------------------------------------------------------|
 PM--------------------------------------------------------------------------|

Lead Guitar:

e-------------------------------------------|
B-------------------------------------------|
G-12v-15-12-15-12v--------------------------|
D--x---x--x--x--x---------------------------|
A-10v-13-10-13-10v--------------------------|
E-------------------------------------------|

e------------------------------------------------|
B------------------------------------------------|
G-12-12--12-12-12--12-12--12-12-12---------------|
D--x--x---x--x--x---x--x---x--x--x---------------|
A-10-10--10-10-10--10-10--10-10-10---------------|
E------------------------------------------------|

e--------------------------------------------------|
B--------------------------------------------------|
G-12-12-12-12-12---12-12-12-12-12---12-12-12-12-12-|
D--x--x--x--x--x----x--x--x--x--x----x--x--x--x--x-|
A-10-10-10-10-10---10-10-10-10-10---10-10-10-10-10-|
E--------------------------------------------------|

e-------------------------------------------|
B-------------------------------------------|
G-12v-15-12-15-12v--------------------------|
D--x---x--x--x--x---------------------------|
A-10v-13-10-13-10v--------------------------|
E-------------------------------------------|

e------------------------------------------------|
B------------------------------------------------|
G-12-12--12-12-12--12-12--12-12-12---------------|
D--x--x---x--x--x---x--x---x--x--x---------------|
A-10-10--10-10-10--10-10--10-10-10---------------|
E------------------------------------------------|

e--------------------------------------------------------------------|
B-/15-15-15-15-15--/15-15-15-15-15--/15-15-15-15-15--/15-15-15-15-15-|
G--------------------------------------------------------------------|
D--------------------------------------------------------------------|
A--------------------------------------------------------------------|
E--------------------------------------------------------------------|

Verse: Both Guitars

e---------------------------------------------------------------------------|
B---------------------------------------------------------------------------|
G------------------3-3-3-5-5-5----------------------------------------------|
D------------------3-3-3-5-5-5----------------------------------------------|
A--5-5-5---1-1-1-0-1-1-1-3-3-3----------------------------------------------|
E--5-5-5-0-1-1-1------------------------------------------------------------|

Pre-Chorus: Both Guitars
[ Tab from: http://www.guitaretab.com/b/bad-religion/120347.html ]
e----------------------------------------------------------|
B----------------------------------------------------------|
G--------------3-3------8-8-7-7-8--------------------------|
D--------------3-3------8-8-7-7-8--------------------------|
A-5-5-6-6--1-1-1-1--5-5-6-6-5-5-6-5-6----------------------|
E-5-5-6-6--1-1------5-5-----------5-6----------------------|

e-----------------------------------------------|
B-----------------------------------------------|
G-----------------------------------------------|
D-----------------------------------------------|
A-5-5-6-6--1--2-2--2-2-2--2-2-------------------|
E-5-5-6-6--1--2-2--2-2-2--2-2-------------------|

Chorus: Both Guitars

e---------------------------------------------------------|
B---------------------------------------------------------|
G-----------3-3--5-5------------3-3-----------------------|
D-----------3-3--5-5------------3-3-----------------------|
A-5-5--1-1--1-1--3-3--5-5--6-6--1-1--3-3------------------|
E-5-5--1-1------------5-5--6-6-------3-3------------------|

Chourus Outro: Both Guitars

e---------------------------------------------------------|
B---------------------------------------------------------|
G-----------3-3-3-3-3-------------------------------------|
D-----------3-3-3-3-3-------------------------------------|
A--5-5-1-1--1-1-1-1-1-------------------------------------|
E--5-5-1-1------------------------------------------------|

Bridge: Both Guitars

e-----------------------------------------------|
B-----------------------------------------------|
G-----------------------------------------------|
D-----------------------------------------------|
A-----------------------------------------------|
E-7-7-5-2-5--7-7-7-5-2-5------------------------|

e-----------------------------------------------|
B-----------------------------------------------|
G-----------------------------------------------|
D-----------------------------------------------|
A-----------------------------------------------|
E-2-0-2-0-2b-2b---------------------------------|

Solo:

Brett just improvises on frets 12-15 on the lower strings

Bridge #2 (Yeah, Yeah, Yeah):

e-----------------------------------------------|
B-----------------------------------------------|
G-12-12-12--------------------------------------|
D--x--x--x--------------------------------------|
A-10-10-10--------------------------------------|
E-----------------------------------------------|

It's easy to figure out timing and how many times each riff is played.

Lyrics:

now here I go,
hope I don't break down,
I won't take anything, I don't need anything,
don't want to exist, I can't persist,
please stop before I do it again,
just talk about nothing, let's talk about nothing,
let's talk about no one, please talk about no one, someone, anyone

you and me have a disease,
you affect me, you infect me,
I'm afflicted, you're addicted,
you and me, you and me

I'm on the edge,
get against the wall,
I'm so distracted,
I love to strike you,
here's my confession,
you learned your lesson,
stop me before I do it again

you're clear - as a heavy lead curtain want to drill you - like an ocean,
we can work it out, I've been running out, now I'm running out
don't be mad about it baby

Yeah, yeah, yeah
Yeah, yeah, yeah
Yeah, yeah, yeah
Yeah! Yeah! Yeahhh!


you and me, you and me,
I want to tie you, crucify you,
kneel before you, revile your body,
you and me, we're made in heaven,
I want to take you, I want to break you,
supplicate you, are incurable,
I want to bathe you in holy water I want to kill you,
upon the alter, you and me, you and me

There you go, for corrections, please e-mail to SCVCGrant@verizon.net
Related for Infected tab