Song name
# A B C D E F G H I J K L M N O P Q R S T U V W X Y Z

Bad Religion - Supersonic tab

Supersonic by Bad Religion

Tabbed by auditek (@gmail.com)

Intro

G-----------------------------------|
D-----------------------------------|
A-7-7-7-7-10-7-10-12-10-12-13-12-10-|
E-----------------------------------|

Intro (continued)

G----------------------------|
D----------------------------|
A-7-7-7-7-10-7-10-13-12-10---|
E--------------------------7-|

Verse (x4)

G--------------------------------|
D--------------------------------|
A-7-7-7-7-10-7-5-----------------|
E----------------8-8-8-8-7-7-7-7-|

Chorus (x3)

G---------------------------------|
D---------------------------------|
A-3-3-3-3-5-5-5-5-----------------|
E-----------------3-3-3-3-2-2-2-2-|

Chorus (x1)

G---------------------------------|
D---------------------------------|
A-3-3-3-3-5-5-5-5-----------------|
E-----------------3-3-3-3-3-3-3-3-|

Bridge

G-------------------------------------------------|
D-------------------------------------------------|
A-7-7-7-7-7-7-5-5-5-5-5-5-------------2-2-2-2-2-2-|
E-------------------------3-3-3-3-3-3-------------|

G-----------------------------------------------------|
D-----------------------------------------------------|
A-7-7-7-7-7-7-5-5-5-5-5-5-3-3-3-3-3-3-5-5-5-5-6-6-6-6-|
E-----------------------------------------------------|

Outro

G---------------------------------------|
D---------------------------------------|
A-7-7-7-7-10-7-10-12-10-12-13-12-10-7/0-|
E---------------------------------------|
Tap to rate this tab
# A B C D E F G H I J K L M N O P Q R S T U V W X Y Z