Guitaretab - guitar tabs
Song name
# A B C D E F G H I J K L M N O P Q R S T U V W X Y Z

Bad Religion - Yesterday tab

 standard E tuning
 ..song nr.21
  intro/main riff:
e|-----------------------------------|
B|-----------------------------------|
G|-----------------8-8-7-------------|
D|-10-10-8-8-10-10-8-8-7--8-8-8--8-8-|
A|-10-10-8-8-10-10-6-6-5--8-8-8--8-8-|
E|--8--8-6-6--8--8--------6-6-6--6-6-|

 Chorus:
e|-------------------------------------------------------------------|
B|-------------------------------------------------------------------|
G|-------8-----------8-7-------------8-------------------------------|
D|-6-6-6-8-8---6-6-6-8-7-8-8---6-6-6-8-8--6-6-6-6-6--5--5-5-5-5--5-8-|
A|-6-6-6-6-8---6-6-6-6-5-8-8---6-6-6-6-8--6-6-6-6-6--5--5-5-5-5--5-8-|
E|-4-4-4---6---4-4-4-----6-6---4-4-4---6--4-4-4-4-4--3--3-3-3-3--3-6-|

main rythm and chorus a couple of times,then.
[ Tab from: http://www.guitaretab.com/b/bad-religion/121637.html ]
 first bridge:
e|-----------------------------------------|
B|-----------------------------------------|
G|----------------8-8-7--------------------|
D|-10--10-8-8-10--8-8-7-8--8-8--8-8--8-8-8-|
A|-10--10-8-8-10--6-6-5-8--8-8--8-8--8-8-8-|
E|--8---8-6-6--8--------6--6-6--6-6--6-6-6-|
pm  .   . . .  .  . . . .  . .  . .  . . .

(then main riff and chorus again)

secound bridge:    (bells bells bells..)    (tea pot?)
e|----------------------||----------------------||------------------------|
B|----------------------||----------------------||------------------------|
G|--------------8-8-7---||--------------8-8-7---||--------------8-8-7-----|
D|-10-10-8-8-10-8-8-7-8-||-10-10-8-8-10-8-8-7-8-||-10-10-8-8-10-8-8-7-8---|
A|-10-10-8-8-10-6-6-5-8-||-10-10-8-8-10-6-6-5-8-||-10-10-8-8-10-6-6-5-8---|
E|--8--8-6-6--8-------6-||--8--8-6-6--8-------6-||--8--8-6-6--8-------6///|
                                                               (slide down)
e|------------------------------------|
B|------------------------------------|
G|--------------8-8-7-----------------|
D|-10-10-8-8-10-8-8-7-8-8-8-8-8-8-8-8-|
A|-10-10-8-8-10-6-6-5-8-8-8-8-8-8-8-8-|
E|--8--8-6-6--8-------6-6-6-6-6-6-6-6-|

then you main riff and chorus one time i think,and you're done.!
 (AND IT*S ALL RIGHT)
Related for Yesterday tab