Guitaretab - guitar tabs
Song name
# A B C D E F G H I J K L M N O P Q R S T U V W X Y Z

Bad Religion - Overture tab

Song: Overture
Band: Bad Religion
Album: The Empire Strikes First
Label: Epitaph Records
Tabbed By: Donahue2

Tuning: Standard

INTRO:  (Just hold down this note, put on some vibrato, but do not strum it)

e|--10~----------|
B|---------------|
G|---------------|
D|---------------|
A|---------------|
E|---------------|
[ Tab from: http://www.guitaretab.com/b/bad-religion/131802.html ]
THE BODY: (Guitar 1)
e|--0----------------------------1--------------0--|
B|--3---------------------------------1---------3--|
G|--2--------------------------------------2----2--|
D|--0----2-----3--------------------------------0--|
A|--0-----------------0-----1-------------------0--|
E|-------------------------------------------------|

(Guitar 2)
e|--0-----0-------1-----0---------0-------1-----0------|
B|--3-------3---3---3-----3---------3---3---3-----3----|
G|--2---2-----2-------2-----2---2-----2-------2-----2--|
D|--0-0-----------------------0------------------------|
A|--0--------------------------------------------------|
E|-----------------------------------------------------|

Play these riffs on top of each other four times throughout the song.

OUTRO:
e|--0----|
B|--3----|
G|--2----|
D|--0----|
A|--0----|
E|-------|

| /  slide up
| \  slide down
| h  hammer-on
| p  pull-off
| ~  vibrato
| +  harmonic
| x  Mute note

Donahue2: Point_blanc99@hotmail.com
Related for Overture tab