Guitaretab - guitar tabs
Song name
# A B C D E F G H I J K L M N O P Q R S T U V W X Y Z

Bad Religion - Let It Burn tab

Let It Burn by Bad Religion
Tabbed by Franco SeLf (francoself@hotmail.com)

INTRO
e|------------------------------------------------|
B|------------------------------------------------|
G|---7--10-5---7--10-5----------------------------|
D|---7--10-5-5-7--10-5----------------------------|
A|---5--8--3-5-5--8--3----------------------------|
E|-----------3------------------------------------|


VERSE

e|------------------------------------------------|
B|------------------------------------------------|
G|------------------------------------------------|
D|------7-7-7---10-10-10--5-5-5--7-7-7------------|
A|------5-5-5----8--8--8--3-3-3--5-5-5------------|
E|------------------------------------------------|


[ Tab from: http://www.guitaretab.com/b/bad-religion/143211.html ]
e|------------------------------------------------|
B|------------------------------------------------|
G|------------------------------------------------|
D|----10-10-10--5-5-5--------7-7-7----------------|
A|-----8--8--8--3-3-3--5-5-5-5-5-5----------------|
E|---------------------3-3-3----------------------|

CHORUS


e|------------------------------------------------|
B|------------------------------------------------|
G|------10-10-10-10-5-5-5-5-----------------------|
D|------10-10-10-10-5-5-5-5--7-7-7-5-5-7-7--------|    <---X2
A|-------8--8--8--8-3-3-3-3--5-5-5-3-3-5-5--------|
E|------------------------------------------------|


e|------------------------------------------------|
B|------------------------------------------------|
G|------10-10-10-10-5-5-5-5----------7-7-7-7------|
D|------10-10-10-10-5-5-5-5--5-5-5-5-7-7-7-7------|
A|-------8--8--8--8-3-3-3-3--5-5-5-5-5-5-5-5------|
E|---------------------------3-3-3-3--------------|


e|------------------------------------------------|
B|------------------------------------------------|
G|------10-10-10-10-5-5-5-5-----------------------|
D|------10-10-10-10-5-5-5-5--7-7-7-5-5-7-7--------|
A|-------8--8--8--8-3-3-3-3--5-5-5-3-3-5-5--------|
E|------------------------------------------------|
Related for Let It Burn tab
×
Let It Burn