Guitaretab - guitar tabs
Song name
# A B C D E F G H I J K L M N O P Q R S T U V W X Y Z

Bad Religion - Part Ii The Numbers Game tab

Artist: Bad Religion
Song: Part II (The Numbers Game)
Album: Suffer (1988)

Tuning: Standard E (e-B-G-D-A-E)

The other tab round here is kind of confusing and also incomplete,
so i decided to tab out this easy song in the correct and complete way.


Played with two guitars, but both play the same riffs

Intro
 "1   2     3     4     5     6     7     8     9     10!"
e---------------------------------------------------------------------|
B---------------------------------------------------------------------|
G-9-9-7-9-9-7-9-9-7-9-9-7-9-9-7-9-9-7-9-9-7-9-9-7-9-9-7-9-9-12-12-7-7-|
D-9-9-7-9-9-7-9-9-7-9-9-7-9-9-7-9-9-7-9-9-7-9-9-7-9-9-7-9-9-12-12-7-7-|
A-7-7-5-7-7-5-7-7-5-7-7-5-7-7-5-7-7-5-7-7-5-7-7-5-7-7-5-7-7-10-10-5-5-|
E---------------------------------------------------------------------|

Verse
play 2 times
e---------------------------------------------------|
B---------------------------------------------------|
G-9-9--7-9-9--9-5-5--5-7-7--7-9-9-7-9-9-7-9-9-7-9-9-|
D-9-9--7-9-9--9-5-5--5-7-7--7-9-9-7-9-9-7-9-9-7-9-9-|
A-7-7--5-7-7--7-3-3--3-5-5--5-7-7-5-7-7-5-7-7-5-7-7-|
E---------------------------------------------------|
[ Tab from: http://www.guitaretab.com/b/bad-religion/179319.html ]
Chorus
e----------------------------------------------------|
B----------------------------------------------------|
G-5-5--5-7-7--7-9-9-7-9-9---5-5--5--------7-7--5-7-7-|
D-5-5--5-7-7--7-9-9-7-9-9---5-5--5-5-5--5-7-7--5-7-7-|
A-3-3--3-5-5--5-7-7-5-7-7---3-3--3-5-5--5-5-5--3-5-5-|
E----------------------------------3-3--3------------|
(continued)
e----------------------------------------------------------------|
B----------------------------------------------------------------|
G-5-5--5-7-7--7-9-9-7-9-9-7-9-9-7-9-9---5-5--5-5-5--4-4-4--4-4-4-|
D-5-5--5-7-7--7-9-9-7-9-9-7-9-9-7-9-9---5-5--5-5-5--4-4-4--4-4-4-|
A-3-3--3-5-5--5-7-7-5-7-7-5-7-7-5-7-7---3-3--3-3-3--2-2-2--2-2-2-|
E----------------------------------------------------------------|

Intro again, but only count to 6 instead of 10, then go to the G - D part

Verse and Chorus again

ATTENTION: the song is now no longer in E but in F sharp

Verse 3:
e----------------------------------------------------------------|
B----------------------------------------------------------------|
G-11-11--9-11-11--11-7-7--7-9-9--9-11-11-9-11-11-9-11-11-9-11-11-|
D-11-11--9-11-11--11-7-7--7-9-9--9-11-11-9-11-11-9-11-11-9-11-11-|
A--9--9--7--9--9---9-5-5--5-7-7--7--9--9-7--9--9-7--9--9-7--9--9-|
E----------------------------------------------------------------|

Chorus 3
e--------------------------------------------------------|
B--------------------------------------------------------|
G-7-7--7-9-9--9-11-11-9-11-11---7-7--7--------9-9--7-9-9-|
D-7-7--7-9-9--9-11-11-9-11-11---7-7--7-7-7--7-9-9--7-9-9-|
A-5-5--5-7-7--7--9--9-7--9--9---5-5--5-7-7--7-7-7--5-7-7-|
E--------------------------------------5-5--5------------|
(continued)
e------------------------------------------------------------------------|
B------------------------------------------------------------------------|
G-7-7--7-9-9--9-11-11-9-11-11-9-11-11-9-11-11---7-7--7-7-7--6-6-6--6-6-6-|
D-7-7--7-9-9--9-11-11-9-11-11-9-11-11-9-11-11---7-7--7-7-7--6-6-6--6-6-6-|
A-5-5--5-7-7--7--9--9-7--9--9-7--9--9-7--9--9---5-5--5-5-5--4-4-4--4-4-4-|
E------------------------------------------------------------------------|

Outro
e----------------------------|
B----------------------------|
G-11-11-9-11-11-9-11-11-9-11-|
D-11-11-9-11-11-9-11-11-9-11-|
A--9--9-7--9--9-7--9--9-7--9-|
E----------------------------|

ok, that's it, not very difficult like most BR songs, but nevertheless f*cking great!
Related for Part Ii The Numbers Game tab
Advertisement will be closed in 10 seconds