Guitaretab - guitar tabs
Song name
# A B C D E F G H I J K L M N O P Q R S T U V W X Y Z

Bad Religion - Frogger tab

                               Frogger
                            Bad Religion


                           Tabbed by Justin Wayman

         I love bad Religion and this song is cool

          That frogger game is fun

[ Tab from: http://www.guitaretab.com/b/bad-religion/181345.html ]
       INTRO THINGY
   |----------------------------------------------------|
   |----------------------------------------------------|
   |----------------------------------------------------|
   |--8-4-4-4-8-4-4-4-9-9-8-8-6-9-9-8-8-6-11-9-9-8-6-4--|
   |----------------------------------------------------|
   |----------------------------------------------------|
   VERSE
   |--------------------------------------|       
   |--------------------------------------|
   |----------------------9-9-9-9-9-9-9-9-|
   |--10-9-10-9-10-9-10-9-9-9-9-9-9-9-9-9-|
   |--10-9-10-9-10-9-10-9-7-7-7-7-7-7-7-7-|
   |---8-7--8-7--8-7--8-7-0-0-0-0-0-0-0-0-|

   |-------------------------------------|
   |-------------------------------------|
   |-12-12-12-12-7-7-7-7-9-9-9-9-9-9-9-9-|
   |-12-12-12-12-7-7-7-7-9-9-9-9-9-9-9-9-|
   |-10-10-10-10-5-5-5-5-7-7-7-7-7-7-7-7-|
   |-------------------------------------|

   VERSE
   |--------------------------------------|       
   |--------------------------------------|
   |----------------------9-9-9-9-9-9-9-9-|
   |--10-9-10-9-10-9-10-9-9-9-9-9-9-9-9-9-|
   |--10-9-10-9-10-9-10-9-7-7-7-7-7-7-7-7-|
   |---8-7--8-7--8-7--8-7-0-0-0-0-0-0-0-0-|


   |-------------------------------------|
   |-------------------------------------|
   |-12-12-12-12-7-7-7-7-9-9-9-9-9-9-9-9-|
   |-12-12-12-12-7-7-7-7-9-9-9-9-9-9-9-9-|
   |-10-10-10-10-5-5-5-5-7-7-7-7-7-7-7-7-|
   |-------------------------------------|

that's it   Hope you like it

   

   

   


Related for Frogger tab
Advertisement will be closed in 10 seconds