Song name
# A B C D E F G H I J K L M N O P Q R S T U V W X Y Z

Bad Religion - New Dark Ages Acoustic tab

Bad Religion
New Dark Ages Acoustic
Kroq Session
Youtube Link:
http://www.youtube.com/watch?v=9z3Pn-
QW_Ls&feature=PlayList&p=C568B4FB2344908A&playnext=1&playnext_from=PL&index=31
Tabbed By Jay the punk

Guitar 1 Greg Graffin No Capo
   B  E  G  D  A              B  E  G  D  A
E-----------------------------------3--2--------------------------------|
B-----------------------------------0--3--2-----------------------------|
G--4--9-----7-----------------4-----0--2--2-----------------------------|
D--4--9--5--7--7-----or-use---4--2--0--0--2-----------------------------|
A--2--7--5--5--7--------------2--2--2-----------------------------------|
E--------3-----5-----------------0--3-----------------------------------|

Lead
E--------------------------------------------------------------------|
B----------------------------------------5-5-3-2--5-5-3-2------------|
G--------------------------------------------------------------------|
D---9-11-12--9-11-12----11-12------11-12------------------9tap>11----| 
A--------------------10---------10-----------------------------------|
E--------------------------------------------------------------------|


Guitar 2 Brett Gurewittz Capo on 2nd fret
   B  E  G  D  A
E--------1-----3-------------------------------------------------------|
B-----3--1--1--3-------------------------------------------------------|
G--2--2--2--0--0-------------------------------------------------------|
D--2--0--3--2--0-------------------------------------------------------|
A--0--------3--2-------------------------------------------------------|
E--------------3-------------------------------------------------------|
Start song on B

Verse: E G D B

Pre Chorus: Palm Mute all strings and strum in rhythem

Chorus: E G D A B

Bridge: A G D A G D A D

Tap to rate this tab
# A B C D E F G H I J K L M N O P Q R S T U V W X Y Z