Song name
# A B C D E F G H I J K L M N O P Q R S T U V W X Y Z

Bad Religion - Part Iii tab

G|---------------------------------------------------------------------------|
D|---------------------------------------------------------------------------|
A|---------------------------------------------------------------------------|
E|---5-5-5-5-5-5-5-5---8-8-8-8-8-8-8-8---3-3-3-3-3-3-3-3---5-5-5-5-5-5-5-5---|

Guitar 1
e|----------------------------|     Guitar 1- Mr Brett
B|----------------------------|     Guitar 2- Greg Hetson
G|------let this ring then ---|     Bass- Jay Bentlay
D|--7---pick slide for--------|
A|--7---the intro-------------|
E|--5-------------------------|
         Guitar 1                                    
e|----------------------------------------------------------------------------------|
B|----------------------------------------------------------------------------------|
G|---------------------------------------10-----------------------------------------|
D|--7-7-7-7-7-7-7-7---10-10-10-10-10-10--10-10---5-5-5-5-5-5-5-5---7-7-7-7-7-7-7-7--|
A|--7-7-7-7-7-7-7-7---10-10-10-10-10-10--8--10---5-5-5-5-5-5-5-5---7-7-7-7-7-7-7-7--|
E|--5-5-5-5-5-5-5-5---8--8--8--8--8--8------8----3-3-3-3-3-3-3-3---5-5-5-5-5-5-5-5--|
        Guitar 2                                  
e|-------------------0-0-0-0-0-0-0-0--3-3-3-3-3-3-3-3--0-0-0-0-0-0-0-0---|
B|--2-2-2-2-2-2-2-2--1-1-1-1-1-1-1-1--0-0-0-0-0-0-0-0--2-2-2-2-2-2-2-2---|
G|--2-2-2-2-2-2-2-2--0-0-0-0-0-0-0-0--0-0-0-0-0-0-0-0--2-2-2-2-2-2-2-2---|
D|--2-2-2-2-2-2-2-2--2-2-2-2-2-2-2-2--0-0-0-0-0-0-0-0--2-2-2-2-2-2-2-2---|
A|--0-0-0-0-0-0-0-0--3-3-3-3-3-3-3-3--2-2-2-2-2-2-2-2--0-0-0-0-0-0-0-0---|
E|--x-x-x-x-x-x-x-x--0-0-0-0-0-0-0-0--3-3-3-3-3-3-3-3--x-x-x-x-x-x-x-x---|
Tap to rate this tab
# A B C D E F G H I J K L M N O P Q R S T U V W X Y Z