Song name
# A B C D E F G H I J K L M N O P Q R S T U V W X Y Z

Bad Religion - Entropy tab

Tuning: Standard

Verse: x2
e|-------------------------------------------------------------------------|
B|-------------------------------------------------------------------------|
G|--10-10-10-10--6-6-6-6--8-8-8-8--10-10-10-10-----------8-10-10-8-10-10---|
D|--10-10-10-10--6-6-6-6--8-8-8-8--10-10-10-10--6-8-6-8--8-10-10-8-10-10---|
A|---8--8--8--8--4-4-4-4--6-6-6-6---8--8--8--8--6-8-6-8--6--8--8-6--8--8---|
E|----------------------------------------------4-6-4-6--------------------|

Pre-chorus:
e|-------------------------------------------------------------------------|
B|-------------------------------------------------------------------------|
G|---------------------------------------------------12-12-12-12-----------|
D|--6-6-6-6--8-8-8-8--10-10-10-10--6-6-6-6--8-8-8-8--12-12-12-12-----------|
A|--6-6-6-6--8-8-8-8--10-10-10-10--6-6-6-6--8-8-8-8--10-10-10-10-----------|
E|--4-4-4-4--6-6-6-6---8--8--8--8--4-4-4-4--6-6-6-6------------------------|

Chorus:
e|-----------------------------------------------------------------------|
B|-----------------------------------------------------------------------|
G|----------8-8-8-8---------10-10-10-10---------8-8-8-8------------------|
D|--6-6-6-6-8-8-8-8-8-8-8-8-10-10-10-10-6-6-6-6-8-8-8-8-8-8-8-8-5-5-5-5--|
A|--6-6-6-6-6-6-6-6-8-8-8-8--8--8--8--8-6-6-6-6-6-6-6-6-8-8-8-8-5-5-5-5--|
E|--4-4-4-4---------6-6-6-6-------------4-4-4-4---------6-6-6-6-3-3-3-3--|

e|-----------------------------------------------------------------------|
B|-----------------------------------------------------------------------|
G|----------8-8-8-8---------10-10-10-10---------8-8-8-8---------5-5-5-5--|
D|--6-6-6-6-8-8-8-8-8-8-8-8-10-10-10-10-6-6-6-6-8-8-8-8-8-8-8-8-5-5-5-5--|
A|--6-6-6-6-6-6-6-6-8-8-8-8--8--8--8--8-6-6-6-6-6-6-6-6-8-8-8-8-3-3-3-3--|
E|--4-4-4-4---------6-6-6-6-------------4-4-4-4---------6-6-6-6----------|
Part after first chorus:
e|-------------------------------|
B|-------------------------------|
G|--5-5-5-5--6-6-6-6--8-8-8-8----|
D|--5-5-5-5--6-6-6-6--8-8-8-8----|
A|--3-3-3-3--4-4-4-4--6-6-6-6----|
E|-------------------------------|
Then play verse 3x (once without singing)
Pre-chorus
Chorus
Bridge: x4
e|----------------------------|
B|----------------------------|
G|---3-3-3-3-3--5-5-5-5-5-----|
D|---3-3-3-3-3--5-5-5-5-5-----|
A|---1-1-1-1-1--3-3-3-3-3-----|
E|----------------------------|
Under solo play verse once then pre-chorus once
Last chorus:
e|-----------------------------------------------------------------------|
B|-----------------------------------------------------------------------|
G|-----8-----10-----8----------------------8-8-8-8---------10-10-10-10---|
D|--6--8--8--10--6--8--8--5-5-5-5--6-6-6-6-8-8-8-8-8-8-8-8-10-10-10-10---|
A|--6--6--8---8--6--6--8--5-5-5-5--6-6-6-6-6-6-6-6-8-8-8-8--8--8--8--8---|
E|--4-----6------4-----6--3-3-3-3--4-4-4-4---------6-6-6-6---------------|

e|----------------------------------------|
B|----------------------------------------|
G|-----------8-8-8-8---------5-5-5-5------|
D|---6-6-6-6-8-8-8-8-8-8-8-8-5-5-5-5------|
A|---6-6-6-6-6-6-6-6-8-8-8-8-3-3-3-3------|
E|---4-4-4-4---------6-6-6-6--------------|
Play the chorus once more
End with:
e|----------------------------------------|
B|----------------------------------------|
G|--10-10-10-10--6-6-6-6--8-8-8-8--10-----|
D|--10-10-10-10--6-6-6-6--8-8-8-8--10-----|
A|---8--8--8--8--4-4-4-4--6-6-6-6---8-----|
E|----------------------------------------|

Tap to rate this tab
 
# A B C D E F G H I J K L M N O P Q R S T U V W X Y Z