Song name
# A B C D E F G H I J K L M N O P Q R S T U V W X Y Z

Bad Religion - Incomplete tab

Tuning: Half Step Down

Intro:
e|------------------------------------------------------------------|
B|------------------------------------------------------------------|
G|--9-9-9-9-9-7-7-7-7-7-----------5-5-5-7-7-7-9-9-9-9-9-7-7-7-7-7---|
D|--9-9-9-9-9-7-7-7-7-7-7-7-7-7-7-5-5-5-7-7-7-9-9-9-9-9-7-7-7-7-7---|
A|--7-7-7-7-7-5-5-5-5-5-7-7-7-7-7-3-3-3-5-5-5-7-7-7-7-7-5-5-5-5-5---|
E|----------------------5-5-5-5-5-----------------------------------|

e|---------------------------|
B|---------------------------|
G|-------------4-5-4-5-7-5-9-|
D|--7-7-7-7-7--4-5-4-5-7-5-9-|
A|--7-7-7-7-7--2-3-2-3-5-3-7-|
E|--5-5-5-5-5----------------|

Verse Part 1: x2
e|---------------------------------------------|
B|---------------------------------------------|
G|--9-9-9-9-9-7-7-7-7-7-----------5-5-5-7-7-7--|
D|--9-9-9-9-9-7-7-7-7-7-7-7-7-7-7-5-5-5-7-7-7--|
A|--7-7-7-7-7-5-5-5-5-5-7-7-7-7-7-3-3-3-5-5-5--|
E|----------------------5-5-5-5-5--------------|

Part 2:
e|-------------------------------------------------------------------------|
B|----------------------------------------x2-------------------------------|
G|-9-9-9-9-9-7-7-7-7-7-----------5-5-5-5-5---------------------------------|
D|-9-9-9-9-9-7-7-7-7-7-7-7-7-7-7-5-5-5-5-5---5-5-5-5-5-7-7-7-7-7-9-9-9-9-9-|
A|-7-7-7-7-7-5-5-5-5-5-7-7-7-7-7-3-3-3-3-3---5-5-5-5-5-7-7-7-7-7-9-9-9-9-9-|
E|---------------------5-5-5-5-5-------------3-3-3-3-3-5-5-5-5-5-7-7-7-7-7-|

e|-----------------------|
B|--16-16-16-16-16-16----|
G|--16-16-16-16-16-16----|
D|--16-16-16-16-16-16----|
A|--14-14-14-14-14-14----|
E|-----------------------|

Chorus:
e|---------------------------------|
B|---------------x4--16-16-16-16---|
G|--9-9-9------------16-16-16-16---|
D|--9-9-9-5-7-5------16-16-16-16---|
A|--7-7-7-5-7-5------14-14-14-14---|
E|--------3-5-3--------------------|

Then play verse and chorus
Second part of verse is behind solo
Bridge:
e|-------------------------------------------------------------------------|
B|----------------------------------------------------------16-16-16-16-16-|
G|-----------------9-9-9-------9-9-9------------------------16-16-16-16-16-|
D|--7---7---7---7--9-9-9-5-7-5-9-9-9-5-7-5--7-7-7-7-9-9-9-9-16-16-16-16-16-|
A|--7---7---7---7--7-7-7-5-7-5-7-7-7-5-7-5--7-7-7-7-9-9-9-9-14-14-14-14-14-|
E|--5---5---5---5--------3-5-3-------3-5-3--5-5-5-5-7-7-7-7----------------|
Play chorus once more minus the last B

Tap to rate this tab
 
# A B C D E F G H I J K L M N O P Q R S T U V W X Y Z