Bad Religion - Resist Stance tab

Bad Religion - The resist stance
from the album "the dissent of man"

standard tunning


Main Riff:

e|-------------------------------------------------------------------------|
B|-------------------------------------------------------------------------|
G|-------------------------------------------------------------------------|
D|------3---1------------3-5-3---1-1---------------------------------------|
A|--------------1----------------------1--1--------------------------------|
E|--1---------------1-1----------------------------------------------------|






Intro: F F D# A# (4x)


(Verse)

F                     D#                  A#
Seeds of rebellion lay outside your front door
F                                         D#           A#            G#
If you nourish them and water them they'll grow into a healthy what for?
        D#                         A#
And if revolution isn't what's in store
            C
How can you care anymore?


(Chorus)

       F          D#
It's a dangerous slip,
   A#            F
a conscientious shift
F                  D#             A#             F
In the spirit of resistance you gotta hold your grip
        G#                                D#                   A#        C
Lest the state of your resolve makes you quickly devolve to a fundamentalist3


verse

chorus

solo:
is like something like that:
e|-------------------------------------------------------------------------|
B|-------------------------------------------------------------------------|
G|----------11b-13b------------------------13-15b-15-13-15b----------------|
D|------15-------------------------13-15-----------------------------------|
A|--------------------------13-15------------------------------------------|
E|---13---------------16p13------------------------------------------------|

e|-------------------------------------------------------------------------|
B|-------------------------------------------15b---------------------------|
G|---13~----------------13~--------------13-------15-----------------------|
D|---13~--15p13-15~-----13~--15p13 15~----------------15p13-15~------------|
A|-------------------------------------------------------------------------|
E|-------------------------------------------------------------------------|

chorus

play intro during "Take a stance. The Resist stance."

thank you and enjoy
Tap to rate this tab
 
# A B C D E F G H I J K L M N O P Q R S T U V W X Y Z